0
SECTION
2
HEADER
9
$ACADVER
1
AC1015
9
$ACADMAINTVER
 70
6
9
$DWGCODEPAGE
3
ANSI_932
9
$EXTMIN
10
0.000
20
0.000
30
0.0
9
$EXTMAX
10
8400.000
20
5940.000
30
0.0
9
$LIMMIN
10
0.000
20
0.000
9
$LIMMAX
10
8400.000
20
5940.000
9
$DIMSCALE
40
20.000000
9
$LTSCALE
40
20.000
9
$PDMODE
70
0
9
$PDSIZE
40
40.0
9
$HANDSEED
5
61d98
9
$UNITMODE
70
0
9
$VISRETAIN
70
0
9
$PLINEGEN
70
0
9
$PSLTSCALE
70
1
9
$TREEDEPTH
70
3020
9
$CMLSTYLE
2
STANDARD
9
$CMLJUST
70
0
9
$CMLSCALE
40
1.0
9
$PROXYGRAPHICS
70
1
9
$MEASUREMENT
70
0
9
$CELWEIGHT
370
-1
9
$ENDCAPS
280
0
9
$JOINSTYLE
280
0
9
$LWDISPLAY
290
0
9
$INSUNITS
70
0
9
$HYPERLINKBASE
1

9
$STYLESHEET
1

9
$XEDIT
290
1
9
$CEPSNTYPE
380
0
9
$PSTYLEMODE
290
1
9
$FINGERPRINTGUID
2
{5F082321-0195-11D3-BDFB-0060B0CD5109}
9
$VERSIONGUID
2
{12943756-294D-11D3-98C2-0060B087942D}
9
$EXTNAMES
290
1
9
$PSVPSCALE
40
0.0
9
$OLESTARTUP
290
0
0
ENDSEC
0
SECTION
  2
CLASSES
0
ENDSEC
0
SECTION
2
TABLES
0
TABLE
2
VPORT
5
190
100
AcDbSymbolTable
70
2
0
VPORT
5
191
100
AcDbSymbolTableRecord
100
AcDbViewportTableRecord
2
*ACTIVE
70
0
10
0.0
20
0.0
11
1.0
21
1.0
12
4200.000
22
2970.000
13
0.0
23
0.0
14
1.0
24
1.0
15
0.0
25
0.0
16
0.0
26
0.0
36
1.0
17
0.0
27
0.0
37
0.0
40
6086.957
41
2.0
42
50.0
43
0.0
44
0.0
50
0.0
51
0.0
71
0
72
1000
73
1
74
1
75
0
76
0
77
0
78
0
0
ENDTAB
0
TABLE
2
LTYPE
5
1f4
100
AcDbSymbolTable
70
9
0
LTYPE
5
1f5
100
AcDbSymbolTableRecord
100
AcDbLinetypeTableRecord
2
BYBLOCK
70
 64
3

72
 65
73
  0
40
0.0
0
LTYPE
5
1f6
100
AcDbSymbolTableRecord
100
AcDbLinetypeTableRecord
2
BYLAYER
70
 64
3

72
 65
73
  0
40
0.0
0
LTYPE
5
1f7
100
AcDbSymbolTableRecord
100
AcDbLinetypeTableRecord
2
CONTINUOUS
70
64
3
SolidLine
72
65
73
0
40
0.0
0
LTYPE
5
1f8
100
AcDbSymbolTableRecord
100
AcDbLinetypeTableRecord
2
DOT
70
64
3
--  --  --  --  --  --  --  --     
72
65
73
2
40
3.000
49
1.000
74
0
49
-2.000
74
0
0
LTYPE
5
1f9
100
AcDbSymbolTableRecord
100
AcDbLinetypeTableRecord
2
DASHED
70
64
3
----    ----    ----    ----    
72
65
73
2
40
5.000
49
2.000
74
0
49
-3.000
74
0
0
LTYPE
5
1fa
100
AcDbSymbolTableRecord
100
AcDbLinetypeTableRecord
2
DASHED2
70
64
3
------  ------  ------  ------ 
72
65
73
2
40
10.000
49
4.000
74
0
49
-6.000
74
0
0
LTYPE
5
1fb
100
AcDbSymbolTableRecord
100
AcDbLinetypeTableRecord
2
CENTER
70
64
3
----- - ----- - ----- - ----- - 
72
65
73
4
40
10.000
49
6.000
74
0
49
-3.000
74
0
49
1.000
74
0
49
-3.000
74
0
0
LTYPE
5
1fc
100
AcDbSymbolTableRecord
100
AcDbLinetypeTableRecord
2
CENTER2
70
64
3
----------  --  ----------  -- 
72
65
73
4
40
17.000
49
12.000
74
0
49
-5.000
74
0
49
2.000
74
0
49
-5.000
74
0
0
LTYPE
5
1fd
100
AcDbSymbolTableRecord
100
AcDbLinetypeTableRecord
2
PHANTOM
70
64
3
--- - - --- - - --- - - --- - -
72
65
73
6
40
13.000
49
5.000
74
0
49
-3.000
74
0
49
1.000
74
0
49
-3.000
74
0
49
1.000
74
0
49
-3.000
74
0
0
LTYPE
5
1fe
100
AcDbSymbolTableRecord
100
AcDbLinetypeTableRecord
2
PHANTOM2
70
64
3
--------  -  -  --------  -  -
72
65
73
6
40
20.000
49
6.000
74
0
49
-5.000
74
0
49
2.000
74
0
49
-5.000
74
0
49
2.000
74
0
49
-5.000
74
0
0
LTYPE
5
1ff
100
AcDbSymbolTableRecord
100
AcDbLinetypeTableRecord
2
HIDDEN
70
64
3
-   -   -   -   -   -   -   -   
72
65
73
2
40
3.000
49
0.500
74
0
49
-2.500
74
0
0
ENDTAB
0
TABLE
2
STYLE
5
200
100
AcDbSymbolTable
70
1
0
STYLE
5
201
100
AcDbSymbolTableRecord
100
AcDbTextStyleTableRecord
2
STANDARD
70
0
40
0.0
41
1.0
50
0.0
71
0
42
0.0
3
txt.shx
4
extfont.shx
0
STYLE
5
202
100
AcDbSymbolTableRecord
100
AcDbTextStyleTableRecord
2
TATEGAKI
70
4
40
0.0
41
1.0
50
0.0
71
0
42
0.0
3
txt.shx
4
extfont.shx
0
STYLE
5
203
100
AcDbSymbolTableRecord
100
AcDbTextStyleTableRecord
2
DIM
70
0
40
0.0
41
0.75
50
0.0
71
0
42
0.0
3
txt.shx
4
extfont.shx
0
STYLE
5
204
100
AcDbSymbolTableRecord
100
AcDbTextStyleTableRecord
2
_Gothic_
70
0
40
1.0
41
1.0
50
0.0
71
0
42
10.0
3

4

1001
ACAD
1000
MS Gothic
1071
32817
0
STYLE
5
205
100
AcDbSymbolTableRecord
100
AcDbTextStyleTableRecord
2
_TateGothic_
70
4
40
0.0
41
1.0
50
0.0
71
0
42
0.0
3
@MS Gothic
4

0
ENDTAB
0
TABLE
2
VIEW
5
206
100
AcDbSymbolTable
70
0
0
ENDTAB
0
TABLE
2
UCS
5
207
100
AcDbSymbolTable
70
0
0
ENDTAB
0
TABLE
2
APPID
5
208
100
AcDbSymbolTable
70
1
0
APPID
5
209
100
AcDbSymbolTableRecord
100
AcDbRegAppTableRecord
2
ACAD
70
0
0
ENDTAB
0
TABLE
2
DIMSTYLE
5
403
330
0
100
AcDbSymbolTable
70
1
100
AcDbDimStyleTable
71
0
0
DIMSTYLE
105
404
330
402
100
AcDbSymbolTableRecord
100
AcDbDimStyleTableRecord
2
JAC_DIM
70
0
41
40.000
42
0.000
44
0.0
73
0
74
0
77
1
78
8
79
2
140
70.000
170
0
171
2
172
0
173
0
174
0
175
0
176
0
177
0
178
0
270
2
271
0
272
0
273
2
274
2
340
201
275
0
280
0
281
0
282
0
283
0
284
0
285
0
286
0
287
3
288
0
0
ENDTAB
0
TABLE
2
BLOCK_RECORD
5
405
100
AcDbSymbolTable
70
0
0
BLOCK_RECORD
5
406
100
AcDbSymbolTableRecord
100
AcDbBlockTableRecord
2
*MODEL_SPACE
0
BLOCK_RECORD
5
407
100
AcDbSymbolTableRecord
100
AcDbBlockTableRecord
2
*PAPER_SPACE
0
BLOCK_RECORD
5
408
100
AcDbSymbolTableRecord
100
AcDbBlockTableRecord
2
_JACCONVERT_
0
ENDTAB
0
TABLE
2
LAYER
5
409
100
AcDbSymbolTable
70
10
0
LAYER
5
40a
100
AcDbSymbolTableRecord
100
AcDbLayerTableRecord
2
0
70
0
62
7
6
CONTINUOUS
370
-3
390
14
0
LAYER
5
40b
100
AcDbSymbolTableRecord
100
AcDbLayerTableRecord
2
0-00
70
0
62
7
6
CONTINUOUS
370
-3
390
14
0
LAYER
5
40c
100
AcDbSymbolTableRecord
100
AcDbLayerTableRecord
2
0-1
70
0
62
7
6
CONTINUOUS
370
-3
390
14
0
LAYER
5
40d
100
AcDbSymbolTableRecord
100
AcDbLayerTableRecord
2
0-6
70
0
62
7
6
CONTINUOUS
370
-3
390
14
0
LAYER
5
40e
100
AcDbSymbolTableRecord
100
AcDbLayerTableRecord
2
0-9
70
0
62
7
6
CONTINUOUS
370
-3
390
14
0
LAYER
5
40f
100
AcDbSymbolTableRecord
100
AcDbLayerTableRecord
2
0-B
70
0
62
7
6
CONTINUOUS
370
-3
390
14
0
LAYER
5
410
100
AcDbSymbolTableRecord
100
AcDbLayerTableRecord
2
0-C
70
0
62
7
6
CONTINUOUS
370
-3
390
14
0
LAYER
5
411
100
AcDbSymbolTableRecord
100
AcDbLayerTableRecord
2
0-F
70
0
62
7
6
CONTINUOUS
370
-3
390
14
0
LAYER
5
412
100
AcDbSymbolTableRecord
100
AcDbLayerTableRecord
2
F-7
70
4
62
7
6
CONTINUOUS
370
-3
390
14
0
LAYER
5
413
100
AcDbSymbolTableRecord
100
AcDbLayerTableRecord
2
F-F_J_ADD
70
4
62
-7
6
CONTINUOUS
290
0
370
-3
390
14
0
ENDTAB
0
ENDSEC
0
SECTION
2
BLOCKS
0
BLOCK
5
414
100
AcDbEntity
67
1
8
0
100
AcDbBlockBegin
2
*MODEL_SPACE
70
0
10
0.0
20
0.0
30
0.0
3
*MODEL_SPACE
1

0
ENDBLK
5
415
100
AcDbEntity
8
0
100
AcDbBlockEnd
0
BLOCK
5
416
100
AcDbEntity
67
1
8
0
100
AcDbBlockBegin
2
*PAPER_SPACE
70
0
10
0.0
20
0.0
30
0.0
3
*PAPER_SPACE
1

0
ENDBLK
5
417
100
AcDbEntity
67
1
8
0
100
AcDbBlockEnd
0
BLOCK
5
418
100
AcDbEntity
8
0
100
AcDbBlockBegin
2
_JACCONVERT_
70
2
10
0.0
20
0.0
30
0.0
3
_JACCONVERT_
1
_JACCONVERT_
0
ATTDEF
5
419
100
AcDbEntity
8
0
62
0
100
AcDbText
10
0.0
20
0.0
30
0.0
40
1.0
1
User:0EE0895C08C7A08978096
100
AcDbAttributeDefinition
3

2
USER
70
8
0
ATTDEF
5
41a
100
AcDbEntity
8
0
62
0
100
AcDbText
10
0.0
20
2.0
30
0.0
40
1.0
1
Date:24/08/19 14:04
100
AcDbAttributeDefinition
3

2
REVDATE
70
8
0
ATTDEF
5
41b
100
AcDbEntity
8
0
62
0
100
AcDbText
10
0.0
20
4.0
30
0.0
40
1.0
1
File:ごみ入れ容器$.dxf
100
AcDbAttributeDefinition
3

2
FNAME
70
8
0
ATTDEF
5
41c
100
AcDbEntity
8
0
62
0
100
AcDbText
10
0.0
20
6.0
30
0.0
40
1.0
1
JacConvert Version3.13p copyright (c) 2001-2021 K.Nakahara
100
AcDbAttributeDefinition
3

2
VER
70
8
0
ENDBLK
5
41d
100
AcDbEntity
67
1
8
0
100
AcDbBlockEnd
0
ENDSEC
0
SECTION
2
ENTITIES
0
LINE
5
41e
100
AcDbEntity
8
F-F_J_ADD
6
HIDDEN
62
7
100
AcDbLine
10
0.000000000004
20
0.000000000000
30
0.0
11
8400.000000000000
21
0.000000000000
31
0.0
0
LINE
5
41f
100
AcDbEntity
8
F-F_J_ADD
6
HIDDEN
62
7
100
AcDbLine
10
4200.000000000002
20
5940.000000000000
30
0.0
11
4200.000000000002
21
5807.335764229474
31
0.0
0
LINE
5
420
100
AcDbEntity
8
F-F_J_ADD
6
HIDDEN
62
7
100
AcDbLine
10
8400.000000000000
20
0.000000000000
30
0.0
11
8400.000000000000
21
5940.000000000000
31
0.0
0
LINE
5
421
100
AcDbEntity
8
F-F_J_ADD
6
HIDDEN
62
7
100
AcDbLine
10
0.000000000004
20
5940.000000000000
30
0.0
11
0.000000000004
21
0.000000000000
31
0.0
0
LINE
5
422
100
AcDbEntity
8
F-F_J_ADD
6
HIDDEN
62
7
100
AcDbLine
10
8400.000000000000
20
5940.000000000000
30
0.0
11
0.000000000004
21
5940.000000000000
31
0.0
0
LINE
5
423
100
AcDbEntity
8
F-F_J_ADD
6
HIDDEN
62
7
100
AcDbLine
10
8267.335764229474
20
132.664235770526
30
0.0
11
8267.335764229474
21
5807.335764229474
31
0.0
0
LINE
5
424
100
AcDbEntity
8
F-F_J_ADD
6
HIDDEN
62
7
100
AcDbLine
10
8267.335764229474
20
132.664235770526
30
0.0
11
132.664235770530
21
132.664235770526
31
0.0
0
LINE
5
425
100
AcDbEntity
8
F-F_J_ADD
6
HIDDEN
62
7
100
AcDbLine
10
132.664235770530
20
132.664235770526
30
0.0
11
132.664235770530
21
5807.335764229474
31
0.0
0
LINE
5
426
100
AcDbEntity
8
F-F_J_ADD
6
HIDDEN
62
7
100
AcDbLine
10
8267.335764229474
20
5807.335764229474
30
0.0
11
132.664235770530
21
5807.335764229474
31
0.0
0
CIRCLE
5
427
100
AcDbEntity
8
0-C
6
CONTINUOUS
62
7
100
AcDbCircle
10
4806.026094341803
20
1555.720033633704
30
0.0
40
100.000000000000
0
LINE
5
428
100
AcDbEntity
8
0-C
6
CONTINUOUS
62
7
100
AcDbLine
10
4806.026094341803
20
1455.720033633704
30
0.0
11
5236.274811340266
21
1455.720033633704
31
0.0
0
LINE
5
429
100
AcDbEntity
8
0-C
6
CONTINUOUS
62
7
100
AcDbLine
10
5268.972336623329
20
2387.512683790458
30
0.0
11
5236.274811340266
21
1455.720033633704
31
0.0
0
POLYLINE
5
42a
100
AcDbEntity
8
0-C
6
CONTINUOUS
62
  7
100
AcDb2dPolyline
66
1
10
0.0
20
0.0
30
0.0
70
0
0
VERTEX
5
42b
100
AcDbEntity
8
0-C
6
CONTINUOUS
62
  7
100
AcDbVertex
100
AcDb2dVertex
10
4737.090914970647
20
1628.162707832455
30
0.0
0
VERTEX
5
42c
100
AcDbEntity
8
0-C
6
CONTINUOUS
62
  7
100
AcDbVertex
100
AcDb2dVertex
10
4705.905588579197
20
2390.022516348158
30
0.0
0
VERTEX
5
42d
100
AcDbEntity
8
0-C
6
CONTINUOUS
62
  7
100
AcDbVertex
100
AcDb2dVertex
10
4656.774865736395
20
2390.022516348158
30
0.0
0
VERTEX
5
42e
100
AcDbEntity
8
0-C
6
CONTINUOUS
62
  7
100
AcDbVertex
100
AcDb2dVertex
10
4651.383233651790
20
2424.528961689635
30
0.0
0
SEQEND
5
42f
100
AcDbEntity
8
0-C
0
CIRCLE
5
430
100
AcDbEntity
8
0-C
6
CONTINUOUS
62
7
100
AcDbCircle
10
4619.204540949018
20
2478.145735182702
30
0.0
40
20.297209199536
0
LINE
5
431
100
AcDbEntity
8
0-C
6
CONTINUOUS
62
7
100
AcDbLine
10
4606.402747384213
20
2462.394837341187
30
0.0
11
4651.383233651790
21
2424.528961689635
31
0.0
0
LINE
5
432
100
AcDbEntity
8
0-C
6
CONTINUOUS
62
7
100
AcDbLine
10
4619.204540949018
20
2498.442944382238
30
0.0
11
4792.570465015244
21
2507.830643753531
31
0.0
0
LINE
5
433
100
AcDbEntity
8
0-C
6
CONTINUOUS
62
7
100
AcDbLine
10
5292.834769188709
20
2485.098961299672
30
0.0
11
5292.834769188709
21
2468.982747997393
31
0.0
0
POLYLINE
5
434
100
AcDbEntity
8
0-C
6
CONTINUOUS
62
  7
100
AcDb2dPolyline
66
1
10
0.0
20
0.0
30
0.0
70
0
0
VERTEX
5
435
100
AcDbEntity
8
0-C
6
CONTINUOUS
62
  7
100
AcDbVertex
100
AcDb2dVertex
10
5292.834769188709
20
2485.098961299672
30
0.0
0
VERTEX
5
436
100
AcDbEntity
8
0-C
6
CONTINUOUS
62
  7
100
AcDbVertex
100
AcDb2dVertex
10
5265.431729398093
20
2492.441583681726
30
0.0
0
VERTEX
5
437
100
AcDbEntity
8
0-C
6
CONTINUOUS
62
  7
100
AcDbVertex
100
AcDb2dVertex
10
5263.005334961409
20
2507.780625107311
30
0.0
0
VERTEX
5
438
100
AcDbEntity
8
0-C
6
CONTINUOUS
62
  7
100
AcDbVertex
100
AcDb2dVertex
10
5282.681837776591
20
2507.780625107311
30
0.0
0
SEQEND
5
439
100
AcDbEntity
8
0-C
0
LINE
5
43a
100
AcDbEntity
8
0-C
6
CONTINUOUS
62
7
100
AcDbLine
10
5282.681837776591
20
2517.844999325925
30
0.0
11
5282.681837776591
21
2507.780625107311
31
0.0
0
LINE
5
43b
100
AcDbEntity
8
0-C
6
CONTINUOUS
62
7
100
AcDbLine
10
4792.570465015244
20
2507.830643753531
30
0.0
11
5030.388318283845
21
2530.602333831689
31
0.0
0
LINE
5
43c
100
AcDbEntity
8
0-C
6
CONTINUOUS
62
7
100
AcDbLine
10
5282.681837776591
20
2517.844999325925
30
0.0
11
5030.388318283844
21
2530.602333831689
31
0.0
0
POLYLINE
5
43d
100
AcDbEntity
8
0-C
6
CONTINUOUS
62
  7
100
AcDb2dPolyline
66
1
10
0.0
20
0.0
30
0.0
70
0
0
VERTEX
5
43e
100
AcDbEntity
8
0-C
6
CONTINUOUS
62
  7
100
AcDbVertex
100
AcDb2dVertex
10
5330.553956919391
20
2412.548632030108
30
0.0
0
VERTEX
5
43f
100
AcDbEntity
8
0-C
6
CONTINUOUS
62
  7
100
AcDbVertex
100
AcDb2dVertex
10
5330.553956919391
20
2438.659718224249
30
0.0
0
VERTEX
5
440
100
AcDbEntity
8
0-C
6
CONTINUOUS
62
  7
100
AcDbVertex
100
AcDb2dVertex
10
5318.120783074615
20
2441.991177115312
30
0.0
0
VERTEX
5
441
100
AcDbEntity
8
0-C
6
CONTINUOUS
62
  7
100
AcDbVertex
100
AcDb2dVertex
10
5318.120783074615
20
2468.982747997393
30
0.0
0
SEQEND
5
442
100
AcDbEntity
8
0-C
0
POLYLINE
5
443
100
AcDbEntity
8
0-C
6
CONTINUOUS
62
  7
100
AcDb2dPolyline
66
1
10
0.0
20
0.0
30
0.0
70
0
0
VERTEX
5
444
100
AcDbEntity
8
0-C
6
CONTINUOUS
62
  7
100
AcDbVertex
100
AcDb2dVertex
10
5330.553956919391
20
2412.548632030108
30
0.0
0
VERTEX
5
445
100
AcDbEntity
8
0-C
6
CONTINUOUS
62
  7
100
AcDbVertex
100
AcDb2dVertex
10
5317.074681325837
20
2412.548632030108
30
0.0
0
VERTEX
5
446
100
AcDbEntity
8
0-C
6
CONTINUOUS
62
  7
100
AcDbVertex
100
AcDb2dVertex
10
5268.972336623329
20
2387.512683790458
30
0.0
0
SEQEND
5
447
100
AcDbEntity
8
0-C
0
LINE
5
448
100
AcDbEntity
8
0-C
6
CONTINUOUS
62
7
100
AcDbLine
10
5318.120783074615
20
2468.982747997393
30
0.0
11
4637.315763081488
21
2468.982747997393
31
0.0
0
CIRCLE
5
449
100
AcDbEntity
8
0-C
6
CONTINUOUS
62
7
100
AcDbCircle
10
635.213858021189
20
2264.884857900874
30
0.0
40
20.163623763081
0
POLYLINE
5
44a
100
AcDbEntity
8
0-C
6
CONTINUOUS
62
  7
100
AcDb2dPolyline
66
1
10
0.0
20
0.0
30
0.0
70
0
0
VERTEX
5
44b
100
AcDbEntity
8
0-C
6
CONTINUOUS
62
  7
100
AcDbVertex
100
AcDb2dVertex
10
783.042104764987
20
2292.078596533539
30
0.0
0
VERTEX
5
44c
100
AcDbEntity
8
0-C
6
CONTINUOUS
62
  7
100
AcDbVertex
100
AcDb2dVertex
10
782.274150757331
20
2291.752250948689
30
0.0
0
VERTEX
5
44d
100
AcDbEntity
8
0-C
6
CONTINUOUS
62
  7
100
AcDbVertex
100
AcDb2dVertex
10
780.952817838306
20
2291.184904237909
30
0.0
0
VERTEX
5
44e
100
AcDbEntity
8
0-C
6
CONTINUOUS
62
  7
100
AcDbVertex
100
AcDb2dVertex
10
779.639056349467
20
2290.604552223486
30
0.0
0
VERTEX
5
44f
100
AcDbEntity
8
0-C
6
CONTINUOUS
62
  7
100
AcDbVertex
100
AcDb2dVertex
10
778.337658335236
20
2290.002963700581
30
0.0
0
VERTEX
5
450
100
AcDbEntity
8
0-C
6
CONTINUOUS
62
  7
100
AcDbVertex
100
AcDb2dVertex
10
777.053415840033
20
2289.371907464354
30
0.0
0
VERTEX
5
451
100
AcDbEntity
8
0-C
6
CONTINUOUS
62
  7
100
AcDbVertex
100
AcDb2dVertex
10
775.791120908279
20
2288.703152309968
30
0.0
0
VERTEX
5
452
100
AcDbEntity
8
0-C
6
CONTINUOUS
62
  7
100
AcDbVertex
100
AcDb2dVertex
10
775.070934536124
20
2288.294757153394
30
0.0
0
VERTEX
5
453
100
AcDbEntity
8
0-C
6
CONTINUOUS
62
  7
100
AcDbVertex
100
AcDb2dVertex
10
774.363466562282
20
2287.871742841357
30
0.0
0
VERTEX
5
454
100
AcDbEntity
8
0-C
6
CONTINUOUS
62
  7
100
AcDbVertex
100
AcDb2dVertex
10
773.164107975701
20
2287.107343449887
30
0.0
0
VERTEX
5
455
100
AcDbEntity
8
0-C
6
CONTINUOUS
62
  7
100
AcDbVertex
100
AcDb2dVertex
10
771.986504583198
20
2286.305575569522
30
0.0
0
VERTEX
5
456
100
AcDbEntity
8
0-C
6
CONTINUOUS
62
  7
100
AcDbVertex
100
AcDb2dVertex
10
770.825906342395
20
2285.474598258974
30
0.0
0
VERTEX
5
457
100
AcDbEntity
8
0-C
6
CONTINUOUS
62
  7
100
AcDbVertex
100
AcDb2dVertex
10
769.677563210920
20
2284.622570576953
30
0.0
0
VERTEX
5
458
100
AcDbEntity
8
0-C
6
CONTINUOUS
62
  7
100
AcDbVertex
100
AcDb2dVertex
10
768.536725146397
20
2283.757651582168
30
0.0
0
VERTEX
5
459
100
AcDbEntity
8
0-C
6
CONTINUOUS
62
  7
100
AcDbVertex
100
AcDb2dVertex
10
767.876606126953
20
2283.253306859088
30
0.0
0
SEQEND
5
45a
100
AcDbEntity
8
0-C
0
POLYLINE
5
45b
100
AcDbEntity
8
0-C
6
CONTINUOUS
62
  7
100
AcDb2dPolyline
66
1
10
0.0
20
0.0
30
0.0
70
0
0
VERTEX
5
45c
100
AcDbEntity
8
0-C
6
CONTINUOUS
62
  7
100
AcDbVertex
100
AcDb2dVertex
10
736.139558122318
20
2283.253306859088
30
0.0
0
VERTEX
5
45d
100
AcDbEntity
8
0-C
6
CONTINUOUS
62
  7
100
AcDbVertex
100
AcDb2dVertex
10
734.302926158832
20
2282.999817049794
30
0.0
0
VERTEX
5
45e
100
AcDbEntity
8
0-C
6
CONTINUOUS
62
  7
100
AcDbVertex
100
AcDb2dVertex
10
731.152440804385
20
2282.530411154653
30
0.0
0
VERTEX
5
45f
100
AcDbEntity
8
0-C
6
CONTINUOUS
62
  7
100
AcDbVertex
100
AcDb2dVertex
10
728.046737336467
20
2281.971131648939
30
0.0
0
VERTEX
5
460
100
AcDbEntity
8
0-C
6
CONTINUOUS
62
  7
100
AcDbVertex
100
AcDb2dVertex
10
725.014158721235
20
2281.265096500647
30
0.0
0
VERTEX
5
461
100
AcDbEntity
8
0-C
6
CONTINUOUS
62
  7
100
AcDbVertex
100
AcDb2dVertex
10
722.083047924846
20
2280.355423677765
30
0.0
0
VERTEX
5
462
100
AcDbEntity
8
0-C
6
CONTINUOUS
62
  7
100
AcDbVertex
100
AcDb2dVertex
10
719.281747913458
20
2279.185231148289
30
0.0
0
VERTEX
5
463
100
AcDbEntity
8
0-C
6
CONTINUOUS
62
  7
100
AcDbVertex
100
AcDb2dVertex
10
717.727641811040
20
2278.364734873154
30
0.0
0
VERTEX
5
464
100
AcDbEntity
8
0-C
6
CONTINUOUS
62
  7
100
AcDbVertex
100
AcDb2dVertex
10
716.898161002789
20
2277.865442823459
30
0.0
0
VERTEX
5
465
100
AcDbEntity
8
0-C
6
CONTINUOUS
62
  7
100
AcDbVertex
100
AcDb2dVertex
10
715.504776070459
20
2276.930831380652
30
0.0
0
VERTEX
5
466
100
AcDbEntity
8
0-C
6
CONTINUOUS
62
  7
100
AcDbVertex
100
AcDb2dVertex
10
714.150560701713
20
2275.917609803776
30
0.0
0
VERTEX
5
467
100
AcDbEntity
8
0-C
6
CONTINUOUS
62
  7
100
AcDbVertex
100
AcDb2dVertex
10
712.826962590094
20
2274.842941877560
30
0.0
0
VERTEX
5
468
100
AcDbEntity
8
0-C
6
CONTINUOUS
62
  7
100
AcDbVertex
100
AcDb2dVertex
10
711.525429429140
20
2273.723991386737
30
0.0
0
VERTEX
5
469
100
AcDbEntity
8
0-C
6
CONTINUOUS
62
  7
100
AcDbVertex
100
AcDb2dVertex
10
710.237408912393
20
2272.577922116037
30
0.0
0
VERTEX
5
46a
100
AcDbEntity
8
0-C
6
CONTINUOUS
62
  7
100
AcDbVertex
100
AcDb2dVertex
10
709.493178452790
20
2271.907539537793
30
0.0
0
SEQEND
5
46b
100
AcDbEntity
8
0-C
0
LINE
5
46c
100
AcDbEntity
8
0-C
6
CONTINUOUS
62
7
100
AcDbLine
10
767.876606126953
20
2283.253306859088
30
0.0
11
736.139558122318
21
2283.253306859088
31
0.0
0
LINE
5
46d
100
AcDbEntity
8
0-C
6
CONTINUOUS
62
7
100
AcDbLine
10
709.493178452790
20
2271.907539537793
30
0.0
11
654.115013168047
21
2271.907539537793
31
0.0
0
LINE
5
46e
100
AcDbEntity
8
0-C
6
CONTINUOUS
62
7
100
AcDbLine
10
632.412319600655
20
2244.916805774104
30
0.0
11
634.218472697662
21
2232.008123345498
31
0.0
0
POLYLINE
5
46f
100
AcDbEntity
8
0-C
6
CONTINUOUS
62
  7
100
AcDb2dPolyline
66
1
10
0.0
20
0.0
30
0.0
70
0
0
VERTEX
5
470
100
AcDbEntity
8
0-C
6
CONTINUOUS
62
  7
100
AcDbVertex
100
AcDb2dVertex
10
693.536506808336
20
2176.911673144248
30
0.0
0
VERTEX
5
471
100
AcDbEntity
8
0-C
6
CONTINUOUS
62
  7
100
AcDbVertex
100
AcDb2dVertex
10
691.096662109952
20
2177.559050680142
30
0.0
0
VERTEX
5
472
100
AcDbEntity
8
0-C
6
CONTINUOUS
62
  7
100
AcDbVertex
100
AcDb2dVertex
10
686.908223896516
20
2178.706735004709
30
0.0
0
VERTEX
5
473
100
AcDbEntity
8
0-C
6
CONTINUOUS
62
  7
100
AcDbVertex
100
AcDb2dVertex
10
682.770315063296
20
2179.941964216033
30
0.0
0
VERTEX
5
474
100
AcDbEntity
8
0-C
6
CONTINUOUS
62
  7
100
AcDbVertex
100
AcDb2dVertex
10
678.714916230687
20
2181.320146470289
30
0.0
0
VERTEX
5
475
100
AcDbEntity
8
0-C
6
CONTINUOUS
62
  7
100
AcDbVertex
100
AcDb2dVertex
10
674.774008019078
20
2182.896689923653
30
0.0
0
VERTEX
5
476
100
AcDbEntity
8
0-C
6
CONTINUOUS
62
  7
100
AcDbVertex
100
AcDb2dVertex
10
670.979571048862
20
2184.727002732299
30
0.0
0
VERTEX
5
477
100
AcDbEntity
8
0-C
6
CONTINUOUS
62
  7
100
AcDbVertex
100
AcDb2dVertex
10
668.858512756369
20
2185.926694974662
30
0.0
0
VERTEX
5
478
100
AcDbEntity
8
0-C
6
CONTINUOUS
62
  7
100
AcDbVertex
100
AcDb2dVertex
10
666.570371164275
20
2187.395388921739
30
0.0
0
VERTEX
5
479
100
AcDbEntity
8
0-C
6
CONTINUOUS
62
  7
100
AcDbVertex
100
AcDb2dVertex
10
662.807100014228
20
2190.228043362298
30
0.0
0
VERTEX
5
47a
100
AcDbEntity
8
0-C
6
CONTINUOUS
62
  7
100
AcDbVertex
100
AcDb2dVertex
10
659.256427092697
20
2193.388602921368
30
0.0
0
VERTEX
5
47b
100
AcDbEntity
8
0-C
6
CONTINUOUS
62
  7
100
AcDbVertex
100
AcDb2dVertex
10
655.897969768044
20
2196.816163192561
30
0.0
0
VERTEX
5
47c
100
AcDbEntity
8
0-C
6
CONTINUOUS
62
  7
100
AcDbVertex
100
AcDb2dVertex
10
652.711345408630
20
2200.449819769488
30
0.0
0
VERTEX
5
47d
100
AcDbEntity
8
0-C
6
CONTINUOUS
62
  7
100
AcDbVertex
100
AcDb2dVertex
10
649.676171382816
20
2204.228668245763
30
0.0
0
VERTEX
5
47e
100
AcDbEntity
8
0-C
6
CONTINUOUS
62
  7
100
AcDbVertex
100
AcDb2dVertex
10
647.977133173937
20
2206.462927787137
30
0.0
0
VERTEX
5
47f
100
AcDbEntity
8
0-C
6
CONTINUOUS
62
  7
100
AcDbVertex
100
AcDb2dVertex
10
646.763931027618
20
2208.105232399010
30
0.0
0
VERTEX
5
480
100
AcDbEntity
8
0-C
6
CONTINUOUS
62
  7
100
AcDbVertex
100
AcDb2dVertex
10
644.733389829271
20
2210.963310889881
30
0.0
0
VERTEX
5
481
100
AcDbEntity
8
0-C
6
CONTINUOUS
62
  7
100
AcDbVertex
100
AcDb2dVertex
10
642.796991285902
20
2213.863920572836
30
0.0
0
VERTEX
5
482
100
AcDbEntity
8
0-C
6
CONTINUOUS
62
  7
100
AcDbVertex
100
AcDb2dVertex
10
640.974143783288
20
2216.817483624086
30
0.0
0
VERTEX
5
483
100
AcDbEntity
8
0-C
6
CONTINUOUS
62
  7
100
AcDbVertex
100
AcDb2dVertex
10
639.284255707209
20
2219.834422219843
30
0.0
0
VERTEX
5
484
100
AcDbEntity
8
0-C
6
CONTINUOUS
62
  7
100
AcDbVertex
100
AcDb2dVertex
10
637.746735443444
20
2222.925158536318
30
0.0
0
VERTEX
5
485
100
AcDbEntity
8
0-C
6
CONTINUOUS
62
  7
100
AcDbVertex
100
AcDb2dVertex
10
636.932436535295
20
2224.755706594888
30
0.0
0
VERTEX
5
486
100
AcDbEntity
8
0-C
6
CONTINUOUS
62
  7
100
AcDbVertex
100
AcDb2dVertex
10
636.652191371278
20
2225.426378202454
30
0.0
0
VERTEX
5
487
100
AcDbEntity
8
0-C
6
CONTINUOUS
62
  7
100
AcDbVertex
100
AcDb2dVertex
10
636.185779271809
20
2226.590978483750
30
0.0
0
VERTEX
5
488
100
AcDbEntity
8
0-C
6
CONTINUOUS
62
  7
100
AcDbVertex
100
AcDb2dVertex
10
635.737238313800
20
2227.764392114193
30
0.0
0
VERTEX
5
489
100
AcDbEntity
8
0-C
6
CONTINUOUS
62
  7
100
AcDbVertex
100
AcDb2dVertex
10
635.302666501298
20
2228.944694781741
30
0.0
0
VERTEX
5
48a
100
AcDbEntity
8
0-C
6
CONTINUOUS
62
  7
100
AcDbVertex
100
AcDb2dVertex
10
634.878161838351
20
2230.129962174353
30
0.0
0
VERTEX
5
48b
100
AcDbEntity
8
0-C
6
CONTINUOUS
62
  7
100
AcDbVertex
100
AcDb2dVertex
10
634.459822329009
20
2231.318269979989
30
0.0
0
VERTEX
5
48c
100
AcDbEntity
8
0-C
6
CONTINUOUS
62
  7
100
AcDbVertex
100
AcDb2dVertex
10
634.218472697662
20
2232.008123345498
30
0.0
0
SEQEND
5
48d
100
AcDbEntity
8
0-C
0
LINE
5
48e
100
AcDbEntity
8
0-C
6
CONTINUOUS
62
7
100
AcDbLine
10
707.495562492445
20
2176.911673144248
30
0.0
11
693.536506808336
21
2176.911673144248
31
0.0
0
CIRCLE
5
48f
100
AcDbEntity
8
0-C
6
CONTINUOUS
62
7
100
AcDbCircle
10
760.849502183351
20
1546.880981016767
30
0.0
40
91.160947383064
0
LINE
5
490
100
AcDbEntity
8
0-C
6
CONTINUOUS
62
7
100
AcDbLine
10
707.495562492445
20
2176.911673144248
30
0.0
11
723.569987115042
21
1630.070860714057
31
0.0
0
POLYLINE
5
491
100
AcDbEntity
8
0-C
6
CONTINUOUS
62
  7
100
AcDb2dPolyline
66
1
10
0.0
20
0.0
30
0.0
70
0
0
VERTEX
5
492
100
AcDbEntity
8
0-C
6
CONTINUOUS
62
  7
100
AcDbVertex
100
AcDb2dVertex
10
1087.400347388543
20
2198.892816805066
30
0.0
0
VERTEX
5
493
100
AcDbEntity
8
0-C
6
CONTINUOUS
62
  7
100
AcDbVertex
100
AcDb2dVertex
10
1117.387012383615
20
2198.892816805066
30
0.0
0
VERTEX
5
494
100
AcDbEntity
8
0-C
6
CONTINUOUS
62
  7
100
AcDbVertex
100
AcDb2dVertex
10
1117.387012383615
20
2228.837819188127
30
0.0
0
VERTEX
5
495
100
AcDbEntity
8
0-C
6
CONTINUOUS
62
  7
100
AcDbVertex
100
AcDb2dVertex
10
1106.190185405601
20
2228.837819188127
30
0.0
0
VERTEX
5
496
100
AcDbEntity
8
0-C
6
CONTINUOUS
62
  7
100
AcDbVertex
100
AcDb2dVertex
10
1106.190185405601
20
2248.503463009408
30
0.0
0
SEQEND
5
497
100
AcDbEntity
8
0-C
0
LINE
5
498
100
AcDbEntity
8
0-C
6
CONTINUOUS
62
7
100
AcDbLine
10
1030.499597278125
20
2274.942362093103
30
0.0
11
1004.272125293444
21
2274.942362093103
31
0.0
0
LINE
5
499
100
AcDbEntity
8
0-C
6
CONTINUOUS
62
7
100
AcDbLine
10
1061.861699948033
20
2269.336656038668
30
0.0
11
1065.460160562177
21
2248.503463009408
31
0.0
0
LINE
5
49a
100
AcDbEntity
8
0-C
6
CONTINUOUS
62
7
100
AcDbLine
10
1057.920066555866
20
2272.655828452748
30
0.0
11
1034.499597278125
21
2272.655828452748
31
0.0
0
ARC
5
49b
100
AcDbEntity
8
0-C
6
CONTINUOUS
62
7
100
AcDbCircle
10
1057.920066555866
20
2268.655828452748
30
0.0
40
4.000000000000
100
AcDbArc
50
9.799848668868
51
90.000000000000
0
LINE
5
49c
100
AcDbEntity
8
0-C
6
CONTINUOUS
62
7
100
AcDbLine
10
1030.499597278125
20
2285.932485454248
30
0.0
11
1030.499597278125
21
2274.942362093103
31
0.0
0
ARC
5
49d
100
AcDbEntity
8
0-C
6
CONTINUOUS
62
7
100
AcDbCircle
10
1024.499597278125
20
2285.932485454248
30
0.0
40
6.000000000000
100
AcDbArc
50
0.000000000000
51
90.000000000000
0
LINE
5
49e
100
AcDbEntity
8
0-C
6
CONTINUOUS
62
7
100
AcDbLine
10
1034.499597278125
20
2285.726396496058
30
0.0
11
1034.499597278125
21
2272.655828452748
31
0.0
0
ARC
5
49f
100
AcDbEntity
8
0-C
6
CONTINUOUS
62
7
100
AcDbCircle
10
1024.499597278125
20
2285.726396496058
30
0.0
40
10.000000000000
100
AcDbArc
50
0.000000000000
51
90.000000000000
0
LINE
5
4a0
100
AcDbEntity
8
0-C
6
CONTINUOUS
62
7
100
AcDbLine
10
946.000711807655
20
2295.726396496058
30
0.0
11
1024.499597278125
21
2295.726396496058
31
0.0
0
ARC
5
4a1
100
AcDbEntity
8
0-C
6
CONTINUOUS
62
7
100
AcDbCircle
10
946.000711807655
20
2291.726396496058
30
0.0
40
4.000000000000
100
AcDbArc
50
90.000000000000
51
174.948564550284
0
LINE
5
4a2
100
AcDbEntity
8
0-C
6
CONTINUOUS
62
7
100
AcDbLine
10
978.044653308762
20
2284.179710716639
30
0.0
11
951.040067310249
21
2284.179710716639
31
0.0
0
LINE
5
4a3
100
AcDbEntity
8
0-C
6
CONTINUOUS
62
7
100
AcDbLine
10
950.237133871497
20
2284.836656257435
30
0.0
11
951.040067310249
21
2284.179710716639
31
0.0
0
LINE
5
4a4
100
AcDbEntity
8
0-C
6
CONTINUOUS
62
7
100
AcDbLine
10
952.770085032526
20
2291.932485454249
30
0.0
11
1024.499597278125
21
2291.932485454249
31
0.0
0
ARC
5
4a5
100
AcDbEntity
8
0-C
6
CONTINUOUS
62
7
100
AcDbCircle
10
952.770085032526
20
2287.932485454249
30
0.0
40
4.000000000000
100
AcDbArc
50
90.000000000000
51
230.710593137499
0
POLYLINE
5
4a6
100
AcDbEntity
8
0-C
6
CONTINUOUS
62
  7
100
AcDb2dPolyline
66
1
10
0.0
20
0.0
30
0.0
70
0
0
VERTEX
5
4a7
100
AcDbEntity
8
0-C
6
CONTINUOUS
62
  7
100
AcDbVertex
100
AcDb2dVertex
10
1004.272125293444
20
2274.942362093103
30
0.0
0
VERTEX
5
4a8
100
AcDbEntity
8
0-C
6
CONTINUOUS
62
  7
100
AcDbVertex
100
AcDb2dVertex
10
1003.071803420310
20
2275.553345237689
30
0.0
0
VERTEX
5
4a9
100
AcDbEntity
8
0-C
6
CONTINUOUS
62
  7
100
AcDbVertex
100
AcDb2dVertex
10
1000.999160146466
20
2276.597847874925
30
0.0
0
VERTEX
5
4aa
100
AcDbEntity
8
0-C
6
CONTINUOUS
62
  7
100
AcDbVertex
100
AcDb2dVertex
10
998.917842420065
20
2277.617582241142
30
0.0
0
VERTEX
5
4ab
100
AcDbEntity
8
0-C
6
CONTINUOUS
62
  7
100
AcDbVertex
100
AcDb2dVertex
10
996.822360081262
20
2278.596872215444
30
0.0
0
VERTEX
5
4ac
100
AcDbEntity
8
0-C
6
CONTINUOUS
62
  7
100
AcDbVertex
100
AcDb2dVertex
10
994.707222970206
20
2279.520041676931
30
0.0
0
VERTEX
5
4ad
100
AcDbEntity
8
0-C
6
CONTINUOUS
62
  7
100
AcDbVertex
100
AcDb2dVertex
10
992.566940927055
20
2280.371414504707
30
0.0
0
VERTEX
5
4ae
100
AcDbEntity
8
0-C
6
CONTINUOUS
62
  7
100
AcDbVertex
100
AcDb2dVertex
10
991.311892525672
20
2280.826136320458
30
0.0
0
VERTEX
5
4af
100
AcDbEntity
8
0-C
6
CONTINUOUS
62
  7
100
AcDbVertex
100
AcDb2dVertex
10
990.094841972517
20
2281.233657704315
30
0.0
0
VERTEX
5
4b0
100
AcDbEntity
8
0-C
6
CONTINUOUS
62
  7
100
AcDbVertex
100
AcDb2dVertex
10
987.974668743014
20
2281.874005828290
30
0.0
0
VERTEX
5
4b1
100
AcDbEntity
8
0-C
6
CONTINUOUS
62
  7
100
AcDbVertex
100
AcDb2dVertex
10
985.831252134127
20
2282.447986845388
30
0.0
0
VERTEX
5
4b2
100
AcDbEntity
8
0-C
6
CONTINUOUS
62
  7
100
AcDbVertex
100
AcDb2dVertex
10
983.669667119520
20
2282.970091390298
30
0.0
0
VERTEX
5
4b3
100
AcDbEntity
8
0-C
6
CONTINUOUS
62
  7
100
AcDbVertex
100
AcDb2dVertex
10
981.494988672857
20
2283.454810097711
30
0.0
0
VERTEX
5
4b4
100
AcDbEntity
8
0-C
6
CONTINUOUS
62
  7
100
AcDbVertex
100
AcDb2dVertex
10
979.312291767806
20
2283.916633602315
30
0.0
0
VERTEX
5
4b5
100
AcDbEntity
8
0-C
6
CONTINUOUS
62
  7
100
AcDbVertex
100
AcDb2dVertex
10
978.044653308762
20
2284.179710716639
30
0.0
0
SEQEND
5
4b6
100
AcDbEntity
8
0-C
0
LINE
5
4b7
100
AcDbEntity
8
0-C
6
CONTINUOUS
62
7
100
AcDbLine
10
783.042104764987
20
2292.078596533539
30
0.0
11
942.016247586006
21
2292.078596533539
31
0.0
0
LINE
5
4b8
100
AcDbEntity
8
0-C
6
CONTINUOUS
62
7
100
AcDbLine
10
1106.190185405601
20
2248.503463009408
30
0.0
11
646.970627333759
21
2248.503463009408
31
0.0
0
POLYLINE
5
4b9
100
AcDbEntity
8
0-C
6
CONTINUOUS
62
  7
100
AcDb2dPolyline
66
1
10
0.0
20
0.0
30
0.0
70
0
0
VERTEX
5
4ba
100
AcDbEntity
8
0-C
6
CONTINUOUS
62
  7
100
AcDbVertex
100
AcDb2dVertex
10
1043.435876063709
20
2148.897682391608
30
0.0
0
VERTEX
5
4bb
100
AcDbEntity
8
0-C
6
CONTINUOUS
62
  7
100
AcDbVertex
100
AcDb2dVertex
10
1044.932631310739
20
2152.429625498309
30
0.0
0
VERTEX
5
4bc
100
AcDbEntity
8
0-C
6
CONTINUOUS
62
  7
100
AcDbVertex
100
AcDb2dVertex
10
1047.568340493882
20
2158.467199726515
30
0.0
0
VERTEX
5
4bd
100
AcDbEntity
8
0-C
6
CONTINUOUS
62
  7
100
AcDbVertex
100
AcDb2dVertex
10
1050.357096033315
20
2164.360377142745
30
0.0
0
VERTEX
5
4be
100
AcDbEntity
8
0-C
6
CONTINUOUS
62
  7
100
AcDbVertex
100
AcDb2dVertex
10
1053.395762711500
20
2170.017767359670
30
0.0
0
VERTEX
5
4bf
100
AcDbEntity
8
0-C
6
CONTINUOUS
62
  7
100
AcDbVertex
100
AcDb2dVertex
10
1056.781205310897
20
2175.347979989963
30
0.0
0
VERTEX
5
4c0
100
AcDbEntity
8
0-C
6
CONTINUOUS
62
  7
100
AcDbVertex
100
AcDb2dVertex
10
1060.610288613970
20
2180.259624646297
30
0.0
0
VERTEX
5
4c1
100
AcDbEntity
8
0-C
6
CONTINUOUS
62
  7
100
AcDbVertex
100
AcDb2dVertex
10
1063.072602861434
20
2182.880578136396
30
0.0
0
VERTEX
5
4c2
100
AcDbEntity
8
0-C
6
CONTINUOUS
62
  7
100
AcDbVertex
100
AcDb2dVertex
10
1065.025437090492
20
2184.706899998351
30
0.0
0
VERTEX
5
4c3
100
AcDbEntity
8
0-C
6
CONTINUOUS
62
  7
100
AcDbVertex
100
AcDb2dVertex
10
1068.621617518215
20
2187.639460771366
30
0.0
0
VERTEX
5
4c4
100
AcDbEntity
8
0-C
6
CONTINUOUS
62
  7
100
AcDbVertex
100
AcDb2dVertex
10
1072.462085422799
20
2190.341540180958
30
0.0
0
VERTEX
5
4c5
100
AcDbEntity
8
0-C
6
CONTINUOUS
62
  7
100
AcDbVertex
100
AcDb2dVertex
10
1076.493502927199
20
2192.863461668923
30
0.0
0
VERTEX
5
4c6
100
AcDbEntity
8
0-C
6
CONTINUOUS
62
  7
100
AcDbVertex
100
AcDb2dVertex
10
1080.662532154371
20
2195.255548677056
30
0.0
0
VERTEX
5
4c7
100
AcDbEntity
8
0-C
6
CONTINUOUS
62
  7
100
AcDbVertex
100
AcDb2dVertex
10
1084.915835227272
20
2197.568124647152
30
0.0
0
VERTEX
5
4c8
100
AcDbEntity
8
0-C
6
CONTINUOUS
62
  7
100
AcDbVertex
100
AcDb2dVertex
10
1087.400347388543
20
2198.892816805066
30
0.0
0
SEQEND
5
4c9
100
AcDbEntity
8
0-C
0
LINE
5
4ca
100
AcDbEntity
8
0-C
6
CONTINUOUS
62
7
100
AcDbLine
10
1022.410062383032
20
1475.120561470922
30
0.0
11
1043.435876063709
21
2148.897682391608
31
0.0
0
LINE
5
4cb
100
AcDbEntity
8
0-C
6
CONTINUOUS
62
7
100
AcDbLine
10
1002.419048573671
20
1455.720033633704
30
0.0
11
760.849502183351
21
1455.720033633704
31
0.0
0
ARC
5
4cc
100
AcDbEntity
8
0-C
6
CONTINUOUS
62
7
100
AcDbCircle
10
1002.419048573671
20
1475.720033633704
30
0.0
40
20.000000000000
100
AcDbArc
50
270.000000000000
51
358.282381501692
0
POLYLINE
5
4cd
100
AcDbEntity
  8
0-1
6
CONTINUOUS
62
4
100
AcDb2dPolyline
66
1
10
0
20
0
70
1
40
8.000
41
8.000
0
VERTEX
5
4ce
100
AcDbEntity
  8
0-1
6
CONTINUOUS
62
4
100
AcDbVertex
100
AcDb2dVertex
10
308.275
20
1455.720
30
0.0
42
1.000
0
VERTEX
5
4cf
100
AcDbEntity
  8
0-1
6
CONTINUOUS
62
4
100
AcDbVertex
100
AcDb2dVertex
10
316.275
20
1455.720
30
0.0
42
1.000
0
SEQEND
5
4d0
100
AcDbEntity
  8
0-1
0
POLYLINE
5
4d1
100
AcDbEntity
  8
0-1
6
CONTINUOUS
62
4
100
AcDb2dPolyline
66
1
10
0
20
0
70
1
40
8.000
41
8.000
0
VERTEX
5
4d2
100
AcDbEntity
  8
0-1
6
CONTINUOUS
62
4
100
AcDbVertex
100
AcDb2dVertex
10
308.275
20
2295.726
30
0.0
42
1.000
0
VERTEX
5
4d3
100
AcDbEntity
  8
0-1
6
CONTINUOUS
62
4
100
AcDbVertex
100
AcDb2dVertex
10
316.275
20
2295.726
30
0.0
42
1.000
0
SEQEND
5
4d4
100
AcDbEntity
  8
0-1
0
LINE
5
4d5
100
AcDbEntity
8
0-1
6
CONTINUOUS
62
4
100
AcDbLine
10
312.274877141044
20
1455.720033633704
30
0.0
11
312.274877141044
21
2295.726396496058
31
0.0
0
TEXT
5
4d6
100
AcDbEntity
8
0-1
62
4
370
-3
100
AcDbText
10
301.530
20
1833.523
30
0.0
40
58.905
41
0.471
50
90.000
1
840
72
1
11
308.075
21
1878.523
31
0.0
100
AcDbText
73
1
0
LINE
5
4d7
100
AcDbEntity
8
0-1
6
CONTINUOUS
62
4
100
AcDbLine
10
312.274877141044
20
1455.720033633704
30
0.0
11
489.418928882725
21
1455.720033633704
31
0.0
0
LINE
5
4d8
100
AcDbEntity
8
0-1
6
CONTINUOUS
62
4
100
AcDbLine
10
312.274877141044
20
2295.726396496058
30
0.0
11
489.418928882725
21
2295.726396496058
31
0.0
0
CIRCLE
5
4d9
100
AcDbEntity
8
0-C
6
CONTINUOUS
62
7
100
AcDbCircle
10
2080.156615106313
20
1551.384053239457
30
0.0
40
100.000000000000
0
LINE
5
4da
100
AcDbEntity
8
0-C
6
CONTINUOUS
62
7
100
AcDbLine
10
2030.208583389357
20
2233.554865788709
30
0.0
11
2052.877403572077
21
1649.054520360578
31
0.0
0
POLYLINE
5
4db
100
AcDbEntity
8
0-C
6
CONTINUOUS
62
  7
100
AcDb2dPolyline
66
1
10
0.0
20
0.0
30
0.0
70
0
0
VERTEX
5
4dc
100
AcDbEntity
8
0-C
6
CONTINUOUS
62
  7
100
AcDbVertex
100
AcDb2dVertex
10
2488.442660562207
20
2276.732885279204
30
0.0
0
VERTEX
5
4dd
100
AcDbEntity
8
0-C
6
CONTINUOUS
62
  7
100
AcDbVertex
100
AcDb2dVertex
10
2488.442660562207
20
2302.843971473345
30
0.0
0
VERTEX
5
4de
100
AcDbEntity
8
0-C
6
CONTINUOUS
62
  7
100
AcDbVertex
100
AcDb2dVertex
10
2476.009486717432
20
2306.175430364408
30
0.0
0
VERTEX
5
4df
100
AcDbEntity
8
0-C
6
CONTINUOUS
62
  7
100
AcDbVertex
100
AcDb2dVertex
10
2476.009486717432
20
2333.167001246490
30
0.0
0
SEQEND
5
4e0
100
AcDbEntity
8
0-C
0
POLYLINE
5
4e1
100
AcDbEntity
8
0-C
6
CONTINUOUS
62
  7
100
AcDb2dPolyline
66
1
10
0.0
20
0.0
30
0.0
70
0
0
VERTEX
5
4e2
100
AcDbEntity
8
0-C
6
CONTINUOUS
62
  7
100
AcDbVertex
100
AcDb2dVertex
10
2488.442660562207
20
2276.732885279204
30
0.0
0
VERTEX
5
4e3
100
AcDbEntity
8
0-C
6
CONTINUOUS
62
  7
100
AcDbVertex
100
AcDb2dVertex
10
2474.963384968653
20
2276.732885279204
30
0.0
0
VERTEX
5
4e4
100
AcDbEntity
8
0-C
6
CONTINUOUS
62
  7
100
AcDbVertex
100
AcDb2dVertex
10
2431.599850601915
20
2251.696937039555
30
0.0
0
SEQEND
5
4e5
100
AcDbEntity
8
0-C
0
LINE
5
4e6
100
AcDbEntity
8
0-C
6
CONTINUOUS
62
7
100
AcDbLine
10
2447.582542900831
20
2344.949357402214
30
0.0
11
2447.582542900831
21
2333.167001246490
31
0.0
0
POLYLINE
5
4e7
100
AcDbEntity
8
0-C
6
CONTINUOUS
62
  7
100
AcDb2dPolyline
66
1
10
0.0
20
0.0
30
0.0
70
0
0
VERTEX
5
4e8
100
AcDbEntity
8
0-C
6
CONTINUOUS
62
  7
100
AcDbVertex
100
AcDb2dVertex
10
2447.582542900831
20
2344.949357402214
30
0.0
0
VERTEX
5
4e9
100
AcDbEntity
8
0-C
6
CONTINUOUS
62
  7
100
AcDbVertex
100
AcDb2dVertex
10
2420.179503110214
20
2352.291979784267
30
0.0
0
VERTEX
5
4ea
100
AcDbEntity
8
0-C
6
CONTINUOUS
62
  7
100
AcDbVertex
100
AcDb2dVertex
10
2420.179503110214
20
2374.060628731352
30
0.0
0
VERTEX
5
4eb
100
AcDbEntity
8
0-C
6
CONTINUOUS
62
  7
100
AcDbVertex
100
AcDb2dVertex
10
2441.433256114979
20
2376.497364744637
30
0.0
0
SEQEND
5
4ec
100
AcDbEntity
8
0-C
0
LINE
5
4ed
100
AcDbEntity
8
0-C
6
CONTINUOUS
62
7
100
AcDbLine
10
2441.433256114979
20
2382.225249082414
30
0.0
11
2441.433256114979
21
2376.497364744637
31
0.0
0
LINE
5
4ee
100
AcDbEntity
8
0-C
6
CONTINUOUS
62
7
100
AcDbLine
10
2080.156615106313
20
1451.384053239457
30
0.0
11
2398.902325318852
21
1451.384053239457
31
0.0
0
LINE
5
4ef
100
AcDbEntity
8
0-C
6
CONTINUOUS
62
7
100
AcDbLine
10
2431.599850601915
20
2251.696937039555
30
0.0
11
2398.902325318852
21
1451.384053239457
31
0.0
0
POLYLINE
5
4f0
100
AcDbEntity
  8
0-1
6
CONTINUOUS
62
4
100
AcDb2dPolyline
66
1
10
0
20
0
70
1
40
8.000
41
8.000
0
VERTEX
5
4f1
100
AcDbEntity
  8
0-1
6
CONTINUOUS
62
4
100
AcDbVertex
100
AcDb2dVertex
10
1639.331
20
1455.720
30
0.0
42
1.000
0
VERTEX
5
4f2
100
AcDbEntity
  8
0-1
6
CONTINUOUS
62
4
100
AcDbVertex
100
AcDb2dVertex
10
1647.331
20
1455.720
30
0.0
42
1.000
0
SEQEND
5
4f3
100
AcDbEntity
  8
0-1
0
POLYLINE
5
4f4
100
AcDbEntity
  8
0-1
6
CONTINUOUS
62
4
100
AcDb2dPolyline
66
1
10
0
20
0
70
1
40
8.000
41
8.000
0
VERTEX
5
4f5
100
AcDbEntity
  8
0-1
6
CONTINUOUS
62
4
100
AcDbVertex
100
AcDb2dVertex
10
1639.331
20
2395.849
30
0.0
42
1.000
0
VERTEX
5
4f6
100
AcDbEntity
  8
0-1
6
CONTINUOUS
62
4
100
AcDbVertex
100
AcDb2dVertex
10
1647.331
20
2395.849
30
0.0
42
1.000
0
SEQEND
5
4f7
100
AcDbEntity
  8
0-1
0
LINE
5
4f8
100
AcDbEntity
8
0-1
6
CONTINUOUS
62
4
100
AcDbLine
10
1643.330525319636
20
1455.720033633704
30
0.0
11
1643.330525319636
21
2395.848657346679
31
0.0
0
TEXT
5
4f9
100
AcDbEntity
8
0-1
62
4
370
-3
100
AcDbText
10
1632.586
20
1883.584
30
0.0
40
58.905
41
0.490
50
90.000
1
940
72
1
11
1639.131
21
1928.584
31
0.0
100
AcDbText
73
1
0
LINE
5
4fa
100
AcDbEntity
8
0-1
6
CONTINUOUS
62
4
100
AcDbLine
10
1643.330525319636
20
1455.720033633704
30
0.0
11
1820.474577061317
21
1455.720033633704
31
0.0
0
LINE
5
4fb
100
AcDbEntity
8
0-1
6
CONTINUOUS
62
4
100
AcDbLine
10
1643.330525319636
20
2395.848657346679
30
0.0
11
1820.474577061317
21
2395.848657346679
31
0.0
0
CIRCLE
5
4fc
100
AcDbEntity
8
0-C
6
CONTINUOUS
62
7
100
AcDbCircle
10
1949.455491028769
20
2340.274763228329
30
0.0
40
20.297209199536
0
POLYLINE
5
4fd
100
AcDbEntity
8
0-C
6
CONTINUOUS
62
  7
100
AcDb2dPolyline
66
1
10
0.0
20
0.0
30
0.0
70
0
0
VERTEX
5
4fe
100
AcDbEntity
8
0-C
6
CONTINUOUS
62
  7
100
AcDbVertex
100
AcDb2dVertex
10
1980.083258148527
20
2365.416338607958
30
0.0
0
VERTEX
5
4ff
100
AcDbEntity
8
0-C
6
CONTINUOUS
62
  7
100
AcDbVertex
100
AcDb2dVertex
10
2015.518447187166
20
2371.305379357300
30
0.0
0
VERTEX
5
500
100
AcDbEntity
8
0-C
6
CONTINUOUS
62
  7
100
AcDbVertex
100
AcDb2dVertex
10
2050.970284586576
20
2376.848945007999
30
0.0
0
VERTEX
5
501
100
AcDbEntity
8
0-C
6
CONTINUOUS
62
  7
100
AcDbVertex
100
AcDb2dVertex
10
2086.449307283955
20
2381.828380434333
30
0.0
0
VERTEX
5
502
100
AcDbEntity
8
0-C
6
CONTINUOUS
62
  7
100
AcDbVertex
100
AcDb2dVertex
10
2121.966052216500
20
2386.025030510577
30
0.0
0
VERTEX
5
503
100
AcDbEntity
8
0-C
6
CONTINUOUS
62
  7
100
AcDbVertex
100
AcDb2dVertex
10
2157.531056321407
20
2389.220240111010
30
0.0
0
VERTEX
5
504
100
AcDbEntity
8
0-C
6
CONTINUOUS
62
  7
100
AcDbVertex
100
AcDb2dVertex
10
2178.185023156206
20
2390.528440163642
30
0.0
0
VERTEX
5
505
100
AcDbEntity
8
0-C
6
CONTINUOUS
62
  7
100
AcDbVertex
100
AcDb2dVertex
10
2201.251765144430
20
2391.469958267047
30
0.0
0
VERTEX
5
506
100
AcDbEntity
8
0-C
6
CONTINUOUS
62
  7
100
AcDbVertex
100
AcDb2dVertex
10
2241.078369254317
20
2391.923736648088
30
0.0
0
VERTEX
5
507
100
AcDbEntity
8
0-C
6
CONTINUOUS
62
  7
100
AcDbVertex
100
AcDb2dVertex
10
2280.965036098272
20
2391.131135324737
30
0.0
0
VERTEX
5
508
100
AcDbEntity
8
0-C
6
CONTINUOUS
62
  7
100
AcDbVertex
100
AcDb2dVertex
10
2328.280170817937
20
2389.364289603634
30
0.0
0
VERTEX
5
509
100
AcDbEntity
8
0-C
6
CONTINUOUS
62
  7
100
AcDbVertex
100
AcDb2dVertex
10
2378.247620727799
20
2386.895334791411
30
0.0
0
VERTEX
5
50a
100
AcDbEntity
8
0-C
6
CONTINUOUS
62
  7
100
AcDbVertex
100
AcDb2dVertex
10
2418.235790969502
20
2383.996406194704
30
0.0
0
VERTEX
5
50b
100
AcDbEntity
8
0-C
6
CONTINUOUS
62
  7
100
AcDbVertex
100
AcDb2dVertex
10
2441.433256114979
20
2382.225249082414
30
0.0
0
SEQEND
5
50c
100
AcDbEntity
8
0-C
0
LINE
5
50d
100
AcDbEntity
8
0-C
6
CONTINUOUS
62
7
100
AcDbLine
10
1946.059013646895
20
2360.285776263260
30
0.0
11
1980.083258148527
21
2365.416338607958
31
0.0
0
LINE
5
50e
100
AcDbEntity
8
0-C
6
CONTINUOUS
62
7
100
AcDbLine
10
2476.009486717432
20
2333.167001246490
30
0.0
11
1968.467498310991
21
2333.167001246490
31
0.0
0
ARC
5
50f
100
AcDbEntity
8
0-C
6
CONTINUOUS
62
7
100
AcDbCircle
10
1980.246144524352
20
2231.617160274282
30
0.0
40
50.000000000000
100
AcDbArc
50
2.221003142169
51
50.896963510211
0
LINE
5
510
100
AcDbEntity
8
0-C
6
CONTINUOUS
62
7
100
AcDbLine
10
2011.781991248291
20
2270.417809384886
30
0.0
11
1936.653697463964
21
2324.523865386815
31
0.0
0
CIRCLE
5
511
100
AcDbEntity
8
0-C
6
CONTINUOUS
62
7
100
AcDbCircle
10
3411.212263284906
20
1554.331926992068
30
0.0
40
100.000000000000
0
POLYLINE
5
512
100
AcDbEntity
8
0-C
6
CONTINUOUS
62
  7
100
AcDb2dPolyline
66
1
10
0.0
20
0.0
30
0.0
70
0
0
VERTEX
5
513
100
AcDbEntity
8
0-C
6
CONTINUOUS
62
  7
100
AcDbVertex
100
AcDb2dVertex
10
3321.138906327119
20
2497.984512999600
30
0.0
0
VERTEX
5
514
100
AcDbEntity
8
0-C
6
CONTINUOUS
62
  7
100
AcDbVertex
100
AcDb2dVertex
10
3356.574095365758
20
2503.873553748942
30
0.0
0
VERTEX
5
515
100
AcDbEntity
8
0-C
6
CONTINUOUS
62
  7
100
AcDbVertex
100
AcDb2dVertex
10
3392.025932765168
20
2509.417119399642
30
0.0
0
VERTEX
5
516
100
AcDbEntity
8
0-C
6
CONTINUOUS
62
  7
100
AcDbVertex
100
AcDb2dVertex
10
3427.504955462547
20
2514.396554825975
30
0.0
0
VERTEX
5
517
100
AcDbEntity
8
0-C
6
CONTINUOUS
62
  7
100
AcDbVertex
100
AcDb2dVertex
10
3463.021700395092
20
2518.593204902220
30
0.0
0
VERTEX
5
518
100
AcDbEntity
8
0-C
6
CONTINUOUS
62
  7
100
AcDbVertex
100
AcDb2dVertex
10
3498.586704499999
20
2521.788414502652
30
0.0
0
VERTEX
5
519
100
AcDbEntity
8
0-C
6
CONTINUOUS
62
  7
100
AcDbVertex
100
AcDb2dVertex
10
3519.240671334798
20
2523.096614555285
30
0.0
0
VERTEX
5
51a
100
AcDbEntity
8
0-C
6
CONTINUOUS
62
  7
100
AcDbVertex
100
AcDb2dVertex
10
3542.307413323022
20
2524.038132658689
30
0.0
0
VERTEX
5
51b
100
AcDbEntity
8
0-C
6
CONTINUOUS
62
  7
100
AcDbVertex
100
AcDb2dVertex
10
3582.134017432909
20
2524.491911039730
30
0.0
0
VERTEX
5
51c
100
AcDbEntity
8
0-C
6
CONTINUOUS
62
  7
100
AcDbVertex
100
AcDb2dVertex
10
3622.020684276864
20
2523.699309716380
30
0.0
0
SEQEND
5
51d
100
AcDbEntity
8
0-C
0
LINE
5
51e
100
AcDbEntity
8
0-C
6
CONTINUOUS
62
7
100
AcDbLine
10
3361.264231567949
20
2366.123040180351
30
0.0
11
3383.933051750669
21
1652.002394113189
31
0.0
0
ARC
5
51f
100
AcDbEntity
8
0-C
6
CONTINUOUS
62
7
100
AcDbCircle
10
3311.301792702944
20
2364.185334665924
30
0.0
40
50.000000000000
100
AcDbArc
50
2.221003142169
51
50.896963510211
0
LINE
5
520
100
AcDbEntity
8
0-C
6
CONTINUOUS
62
7
100
AcDbLine
10
3622.020684276864
20
2523.699309716380
30
0.0
11
3669.335818996528
21
2521.932463995276
31
0.0
0
LINE
5
521
100
AcDbEntity
8
0-C
6
CONTINUOUS
62
7
100
AcDbLine
10
3411.212263284906
20
1454.331926992068
30
0.0
11
3739.957973497444
21
1454.331926992068
31
0.0
0
POLYLINE
5
522
100
AcDbEntity
8
0-C
6
CONTINUOUS
62
  7
100
AcDb2dPolyline
66
1
10
0.0
20
0.0
30
0.0
70
0
0
VERTEX
5
523
100
AcDbEntity
8
0-C
6
CONTINUOUS
62
  7
100
AcDbVertex
100
AcDb2dVertex
10
3669.335818996528
20
2521.932463995276
30
0.0
0
VERTEX
5
524
100
AcDbEntity
8
0-C
6
CONTINUOUS
62
  7
100
AcDbVertex
100
AcDb2dVertex
10
3719.303268906392
20
2519.463509183053
30
0.0
0
VERTEX
5
525
100
AcDbEntity
8
0-C
6
CONTINUOUS
62
  7
100
AcDbVertex
100
AcDb2dVertex
10
3759.291439148095
20
2516.564580586346
30
0.0
0
VERTEX
5
526
100
AcDbEntity
8
0-C
6
CONTINUOUS
62
  7
100
AcDbVertex
100
AcDb2dVertex
10
3782.488904293571
20
2514.793423474056
30
0.0
0
SEQEND
5
527
100
AcDbEntity
8
0-C
0
POLYLINE
5
528
100
AcDbEntity
8
0-C
6
CONTINUOUS
62
  7
100
AcDb2dPolyline
66
1
10
0.0
20
0.0
30
0.0
70
0
0
VERTEX
5
529
100
AcDbEntity
8
0-C
6
CONTINUOUS
62
  7
100
AcDbVertex
100
AcDb2dVertex
10
3829.498308740799
20
2409.301059670847
30
0.0
0
VERTEX
5
52a
100
AcDbEntity
8
0-C
6
CONTINUOUS
62
  7
100
AcDbVertex
100
AcDb2dVertex
10
3829.498308740799
20
2435.412145864988
30
0.0
0
VERTEX
5
52b
100
AcDbEntity
8
0-C
6
CONTINUOUS
62
  7
100
AcDbVertex
100
AcDb2dVertex
10
3817.065134896024
20
2438.743604756050
30
0.0
0
VERTEX
5
52c
100
AcDbEntity
8
0-C
6
CONTINUOUS
62
  7
100
AcDbVertex
100
AcDb2dVertex
10
3817.065134896024
20
2465.735175638133
30
0.0
0
SEQEND
5
52d
100
AcDbEntity
8
0-C
0
POLYLINE
5
52e
100
AcDbEntity
8
0-C
6
CONTINUOUS
62
  7
100
AcDb2dPolyline
66
1
10
0.0
20
0.0
30
0.0
70
0
0
VERTEX
5
52f
100
AcDbEntity
8
0-C
6
CONTINUOUS
62
  7
100
AcDbVertex
100
AcDb2dVertex
10
3829.498308740799
20
2409.301059670847
30
0.0
0
VERTEX
5
530
100
AcDbEntity
8
0-C
6
CONTINUOUS
62
  7
100
AcDbVertex
100
AcDb2dVertex
10
3816.019033147245
20
2409.301059670847
30
0.0
0
VERTEX
5
531
100
AcDbEntity
8
0-C
6
CONTINUOUS
62
  7
100
AcDbVertex
100
AcDb2dVertex
10
3772.655498780508
20
2384.265111431197
30
0.0
0
SEQEND
5
532
100
AcDbEntity
8
0-C
0
LINE
5
533
100
AcDbEntity
8
0-C
6
CONTINUOUS
62
7
100
AcDbLine
10
3788.638191079423
20
2477.517531793856
30
0.0
11
3788.638191079423
21
2465.735175638133
31
0.0
0
POLYLINE
5
534
100
AcDbEntity
8
0-C
6
CONTINUOUS
62
  7
100
AcDb2dPolyline
66
1
10
0.0
20
0.0
30
0.0
70
0
0
VERTEX
5
535
100
AcDbEntity
8
0-C
6
CONTINUOUS
62
  7
100
AcDbVertex
100
AcDb2dVertex
10
3788.638191079423
20
2477.517531793856
30
0.0
0
VERTEX
5
536
100
AcDbEntity
8
0-C
6
CONTINUOUS
62
  7
100
AcDbVertex
100
AcDb2dVertex
10
3761.235151288806
20
2484.860154175909
30
0.0
0
VERTEX
5
537
100
AcDbEntity
8
0-C
6
CONTINUOUS
62
  7
100
AcDbVertex
100
AcDb2dVertex
10
3761.235151288806
20
2506.628803122995
30
0.0
0
VERTEX
5
538
100
AcDbEntity
8
0-C
6
CONTINUOUS
62
  7
100
AcDbVertex
100
AcDb2dVertex
10
3782.488904293571
20
2509.065539136280
30
0.0
0
SEQEND
5
539
100
AcDbEntity
8
0-C
0
LINE
5
53a
100
AcDbEntity
8
0-C
6
CONTINUOUS
62
7
100
AcDbLine
10
3782.488904293571
20
2514.793423474056
30
0.0
11
3782.488904293571
21
2509.065539136280
31
0.0
0
LINE
5
53b
100
AcDbEntity
8
0-C
6
CONTINUOUS
62
7
100
AcDbLine
10
3772.655498780508
20
2384.265111431197
30
0.0
11
3739.957973497444
21
1454.331926992068
31
0.0
0
CIRCLE
5
53c
100
AcDbEntity
8
0-C
6
CONTINUOUS
62
7
100
AcDbCircle
10
3290.511139207361
20
2472.842937619972
30
0.0
40
20.297209199536
0
LINE
5
53d
100
AcDbEntity
8
0-C
6
CONTINUOUS
62
7
100
AcDbLine
10
3817.065134896024
20
2465.735175638133
30
0.0
11
3309.523146489583
21
2465.735175638133
31
0.0
0
LINE
5
53e
100
AcDbEntity
8
0-C
6
CONTINUOUS
62
7
100
AcDbLine
10
3342.837639426883
20
2402.985983776529
30
0.0
11
3277.709345642556
21
2457.092039778457
31
0.0
0
LINE
5
53f
100
AcDbEntity
8
0-C
6
CONTINUOUS
62
7
100
AcDbLine
10
3287.114661825487
20
2492.853950654902
30
0.0
11
3321.138906327119
21
2497.984512999600
31
0.0
0
POLYLINE
5
540
100
AcDbEntity
  8
0-1
6
CONTINUOUS
62
4
100
AcDb2dPolyline
66
1
10
0
20
0
70
1
40
8.000
41
8.000
0
VERTEX
5
541
100
AcDbEntity
  8
0-1
6
CONTINUOUS
62
4
100
AcDbVertex
100
AcDb2dVertex
10
2970.386
20
1455.720
30
0.0
42
1.000
0
VERTEX
5
542
100
AcDbEntity
  8
0-1
6
CONTINUOUS
62
4
100
AcDbVertex
100
AcDb2dVertex
10
2978.386
20
1455.720
30
0.0
42
1.000
0
SEQEND
5
543
100
AcDbEntity
  8
0-1
0
POLYLINE
5
544
100
AcDbEntity
  8
0-1
6
CONTINUOUS
62
4
100
AcDb2dPolyline
66
1
10
0
20
0
70
1
40
8.000
41
8.000
0
VERTEX
5
545
100
AcDbEntity
  8
0-1
6
CONTINUOUS
62
4
100
AcDbVertex
100
AcDb2dVertex
10
2970.386
20
2525.535
30
0.0
42
1.000
0
VERTEX
5
546
100
AcDbEntity
  8
0-1
6
CONTINUOUS
62
4
100
AcDbVertex
100
AcDb2dVertex
10
2978.386
20
2525.535
30
0.0
42
1.000
0
SEQEND
5
547
100
AcDbEntity
  8
0-1
0
LINE
5
548
100
AcDbEntity
8
0-1
6
CONTINUOUS
62
4
100
AcDbLine
10
2974.386173498228
20
1455.720033633704
30
0.0
11
2974.386173498228
21
2525.534810422850
31
0.0
0
TEXT
5
549
100
AcDbEntity
8
0-1
62
4
370
-3
100
AcDbText
10
2963.641
20
1918.427
30
0.0
40
58.905
41
0.594
50
90.000
1
1,070
72
1
11
2970.186
21
1993.427
31
0.0
100
AcDbText
73
1
0
LINE
5
54a
100
AcDbEntity
8
0-1
6
CONTINUOUS
62
4
100
AcDbLine
10
2974.386173498228
20
2525.534810422850
30
0.0
11
3151.530225239909
21
2525.534810422850
31
0.0
0
LINE
5
54b
100
AcDbEntity
8
0-1
6
CONTINUOUS
62
4
100
AcDbLine
10
2974.386173498228
20
1455.720033633704
30
0.0
11
3151.530225239909
21
1455.720033633704
31
0.0
0
POLYLINE
5
54c
100
AcDbEntity
  8
0-1
6
CONTINUOUS
62
4
100
AcDb2dPolyline
66
1
10
0
20
0
70
1
40
8.000
41
8.000
0
VERTEX
5
54d
100
AcDbEntity
  8
0-1
6
CONTINUOUS
62
4
100
AcDbVertex
100
AcDb2dVertex
10
4301.442
20
1455.720
30
0.0
42
1.000
0
VERTEX
5
54e
100
AcDbEntity
  8
0-1
6
CONTINUOUS
62
4
100
AcDbVertex
100
AcDb2dVertex
10
4309.442
20
1455.720
30
0.0
42
1.000
0
SEQEND
5
54f
100
AcDbEntity
  8
0-1
0
POLYLINE
5
550
100
AcDbEntity
  8
0-1
6
CONTINUOUS
62
4
100
AcDb2dPolyline
66
1
10
0
20
0
70
1
40
8.000
41
8.000
0
VERTEX
5
551
100
AcDbEntity
  8
0-1
6
CONTINUOUS
62
4
100
AcDbVertex
100
AcDb2dVertex
10
4301.442
20
2530.602
30
0.0
42
1.000
0
VERTEX
5
552
100
AcDbEntity
  8
0-1
6
CONTINUOUS
62
4
100
AcDbVertex
100
AcDb2dVertex
10
4309.442
20
2530.602
30
0.0
42
1.000
0
SEQEND
5
553
100
AcDbEntity
  8
0-1
0
LINE
5
554
100
AcDbEntity
8
0-1
6
CONTINUOUS
62
4
100
AcDbLine
10
4305.441821676820
20
1455.720033633704
30
0.0
11
4305.441821676820
21
2530.602333831689
31
0.0
0
TEXT
5
555
100
AcDbEntity
8
0-1
62
4
370
-3
100
AcDbText
10
4294.697
20
1920.961
30
0.0
40
58.905
41
0.563
50
90.000
1
1,075
72
1
11
4301.242
21
1995.961
31
0.0
100
AcDbText
73
1
0
LINE
5
556
100
AcDbEntity
8
0-1
6
CONTINUOUS
62
4
100
AcDbLine
10
4305.441821676820
20
2530.602333831689
30
0.0
11
4482.585873418500
21
2530.602333831689
31
0.0
0
LINE
5
557
100
AcDbEntity
8
0-1
6
CONTINUOUS
62
4
100
AcDbLine
10
4305.441821676820
20
1455.720033633704
30
0.0
11
4482.585873418500
21
1455.720033633704
31
0.0
0
CIRCLE
5
558
100
AcDbEntity
8
0-C
6
CONTINUOUS
62
7
100
AcDbCircle
10
6137.081742520396
20
1555.720033633704
30
0.0
40
100.000000000000
0
LINE
5
559
100
AcDbEntity
8
0-C
6
CONTINUOUS
62
7
100
AcDbLine
10
6137.081742520396
20
1455.720033633704
30
0.0
11
6567.330459518858
21
1455.720033633704
31
0.0
0
LINE
5
55a
100
AcDbEntity
8
0-C
6
CONTINUOUS
62
7
100
AcDbLine
10
6600.027984801922
20
2387.512683790458
30
0.0
11
6567.330459518858
21
1455.720033633704
31
0.0
0
POLYLINE
5
55b
100
AcDbEntity
8
0-C
6
CONTINUOUS
62
  7
100
AcDb2dPolyline
66
1
10
0.0
20
0.0
30
0.0
70
0
0
VERTEX
5
55c
100
AcDbEntity
8
0-C
6
CONTINUOUS
62
  7
100
AcDbVertex
100
AcDb2dVertex
10
6068.146563149239
20
1628.162707832455
30
0.0
0
VERTEX
5
55d
100
AcDbEntity
8
0-C
6
CONTINUOUS
62
  7
100
AcDbVertex
100
AcDb2dVertex
10
6036.961236757788
20
2390.022516348158
30
0.0
0
VERTEX
5
55e
100
AcDbEntity
8
0-C
6
CONTINUOUS
62
  7
100
AcDbVertex
100
AcDb2dVertex
10
5987.830513914988
20
2390.022516348158
30
0.0
0
VERTEX
5
55f
100
AcDbEntity
8
0-C
6
CONTINUOUS
62
  7
100
AcDbVertex
100
AcDb2dVertex
10
5982.438881830381
20
2424.528961689635
30
0.0
0
SEQEND
5
560
100
AcDbEntity
8
0-C
0
CIRCLE
5
561
100
AcDbEntity
8
0-C
6
CONTINUOUS
62
7
100
AcDbCircle
10
5950.260189127610
20
2478.145735182702
30
0.0
40
20.297209199536
0
LINE
5
562
100
AcDbEntity
8
0-C
6
CONTINUOUS
62
7
100
AcDbLine
10
5937.458395562804
20
2462.394837341187
30
0.0
11
5982.438881830381
21
2424.528961689635
31
0.0
0
LINE
5
563
100
AcDbEntity
8
0-C
6
CONTINUOUS
62
7
100
AcDbLine
10
5950.260189127610
20
2498.442944382238
30
0.0
11
6123.626113193836
21
2507.830643753531
31
0.0
0
LINE
5
564
100
AcDbEntity
8
0-C
6
CONTINUOUS
62
7
100
AcDbLine
10
6623.890417367302
20
2485.098961299672
30
0.0
11
6623.890417367302
21
2468.982747997393
31
0.0
0
POLYLINE
5
565
100
AcDbEntity
8
0-C
6
CONTINUOUS
62
  7
100
AcDb2dPolyline
66
1
10
0.0
20
0.0
30
0.0
70
0
0
VERTEX
5
566
100
AcDbEntity
8
0-C
6
CONTINUOUS
62
  7
100
AcDbVertex
100
AcDb2dVertex
10
6623.890417367302
20
2485.098961299672
30
0.0
0
VERTEX
5
567
100
AcDbEntity
8
0-C
6
CONTINUOUS
62
  7
100
AcDbVertex
100
AcDb2dVertex
10
6596.487377576685
20
2492.441583681726
30
0.0
0
VERTEX
5
568
100
AcDbEntity
8
0-C
6
CONTINUOUS
62
  7
100
AcDbVertex
100
AcDb2dVertex
10
6594.060983140002
20
2507.780625107311
30
0.0
0
VERTEX
5
569
100
AcDbEntity
8
0-C
6
CONTINUOUS
62
  7
100
AcDbVertex
100
AcDb2dVertex
10
6613.737485955184
20
2507.780625107311
30
0.0
0
SEQEND
5
56a
100
AcDbEntity
8
0-C
0
LINE
5
56b
100
AcDbEntity
8
0-C
6
CONTINUOUS
62
7
100
AcDbLine
10
6613.737485955184
20
2517.844999325925
30
0.0
11
6613.737485955184
21
2507.780625107311
31
0.0
0
LINE
5
56c
100
AcDbEntity
8
0-C
6
CONTINUOUS
62
7
100
AcDbLine
10
6123.626113193836
20
2507.830643753531
30
0.0
11
6361.443966462436
21
2530.602333831689
31
0.0
0
LINE
5
56d
100
AcDbEntity
8
0-C
6
CONTINUOUS
62
7
100
AcDbLine
10
6613.737485955184
20
2517.844999325925
30
0.0
11
6361.443966462436
21
2530.602333831689
31
0.0
0
POLYLINE
5
56e
100
AcDbEntity
8
0-C
6
CONTINUOUS
62
  7
100
AcDb2dPolyline
66
1
10
0.0
20
0.0
30
0.0
70
0
0
VERTEX
5
56f
100
AcDbEntity
8
0-C
6
CONTINUOUS
62
  7
100
AcDbVertex
100
AcDb2dVertex
10
6661.609605097983
20
2412.548632030108
30
0.0
0
VERTEX
5
570
100
AcDbEntity
8
0-C
6
CONTINUOUS
62
  7
100
AcDbVertex
100
AcDb2dVertex
10
6661.609605097983
20
2438.659718224249
30
0.0
0
VERTEX
5
571
100
AcDbEntity
8
0-C
6
CONTINUOUS
62
  7
100
AcDbVertex
100
AcDb2dVertex
10
6649.176431253207
20
2441.991177115312
30
0.0
0
VERTEX
5
572
100
AcDbEntity
8
0-C
6
CONTINUOUS
62
  7
100
AcDbVertex
100
AcDb2dVertex
10
6649.176431253207
20
2468.982747997393
30
0.0
0
SEQEND
5
573
100
AcDbEntity
8
0-C
0
POLYLINE
5
574
100
AcDbEntity
8
0-C
6
CONTINUOUS
62
  7
100
AcDb2dPolyline
66
1
10
0.0
20
0.0
30
0.0
70
0
0
VERTEX
5
575
100
AcDbEntity
8
0-C
6
CONTINUOUS
62
  7
100
AcDbVertex
100
AcDb2dVertex
10
6661.609605097983
20
2412.548632030108
30
0.0
0
VERTEX
5
576
100
AcDbEntity
8
0-C
6
CONTINUOUS
62
  7
100
AcDbVertex
100
AcDb2dVertex
10
6648.130329504429
20
2412.548632030108
30
0.0
0
VERTEX
5
577
100
AcDbEntity
8
0-C
6
CONTINUOUS
62
  7
100
AcDbVertex
100
AcDb2dVertex
10
6600.027984801922
20
2387.512683790458
30
0.0
0
SEQEND
5
578
100
AcDbEntity
8
0-C
0
LINE
5
579
100
AcDbEntity
8
0-C
6
CONTINUOUS
62
7
100
AcDbLine
10
6649.176431253207
20
2468.982747997393
30
0.0
11
5968.371411260079
21
2468.982747997393
31
0.0
0
POLYLINE
5
57a
100
AcDbEntity
  8
0-1
6
CONTINUOUS
62
4
100
AcDb2dPolyline
66
1
10
0
20
0
70
1
40
8.000
41
8.000
0
VERTEX
5
57b
100
AcDbEntity
  8
0-1
6
CONTINUOUS
62
4
100
AcDbVertex
100
AcDb2dVertex
10
5632.497
20
1455.720
30
0.0
42
1.000
0
VERTEX
5
57c
100
AcDbEntity
  8
0-1
6
CONTINUOUS
62
4
100
AcDbVertex
100
AcDb2dVertex
10
5640.497
20
1455.720
30
0.0
42
1.000
0
SEQEND
5
57d
100
AcDbEntity
  8
0-1
0
POLYLINE
5
57e
100
AcDbEntity
  8
0-1
6
CONTINUOUS
62
4
100
AcDb2dPolyline
66
1
10
0
20
0
70
1
40
8.000
41
8.000
0
VERTEX
5
57f
100
AcDbEntity
  8
0-1
6
CONTINUOUS
62
4
100
AcDbVertex
100
AcDb2dVertex
10
5632.497
20
2516.861
30
0.0
42
1.000
0
VERTEX
5
580
100
AcDbEntity
  8
0-1
6
CONTINUOUS
62
4
100
AcDbVertex
100
AcDb2dVertex
10
5640.497
20
2516.861
30
0.0
42
1.000
0
SEQEND
5
581
100
AcDbEntity
  8
0-1
0
LINE
5
582
100
AcDbEntity
8
0-1
6
CONTINUOUS
62
4
100
AcDbLine
10
5636.497469855412
20
1455.720033633704
30
0.0
11
5636.497469855412
21
2516.861033475975
31
0.0
0
TEXT
5
583
100
AcDbEntity
8
0-1
62
4
370
-3
100
AcDbText
10
5625.752
20
1914.091
30
0.0
40
58.905
41
0.620
50
90.000
1
1,061
72
1
11
5632.297
21
1989.091
31
0.0
100
AcDbText
73
1
0
LINE
5
584
100
AcDbEntity
8
0-1
6
CONTINUOUS
62
4
100
AcDbLine
10
5636.497469855412
20
1455.720033633704
30
0.0
11
5813.641521597093
21
1455.720033633704
31
0.0
0
LINE
5
585
100
AcDbEntity
8
0-1
6
CONTINUOUS
62
4
100
AcDbLine
10
5636.497469855412
20
2516.861033475975
30
0.0
11
5813.641521597093
21
2516.861033475975
31
0.0
0
ARC
5
586
100
AcDbEntity
8
0-C
6
CONTINUOUS
62
7
100
AcDbCircle
10
7866.141331744351
20
3284.808476828509
30
0.0
40
20.000000000000
100
AcDbArc
50
275.501602724948
51
360.000000000000
0
LINE
5
587
100
AcDbEntity
8
0-C
6
CONTINUOUS
62
7
100
AcDbLine
10
7911.582725207150
20
3269.092712247134
30
0.0
11
7692.087299963143
21
3247.951509815698
31
0.0
0
ARC
5
588
100
AcDbEntity
8
0-C
6
CONTINUOUS
62
7
100
AcDbCircle
10
7909.665253276576
20
3289.000582585154
30
0.0
40
20.000000000000
100
AcDbArc
50
275.501602724948
51
360.000000000000
0
ARC
5
589
100
AcDbEntity
8
0-C
6
CONTINUOUS
62
7
100
AcDbCircle
10
7866.141331744351
20
4421.094542802886
30
0.0
40
20.000000000000
100
AcDbArc
50
360.000000000000
51
444.498397275052
0
LINE
5
58a
100
AcDbEntity
8
0-C
6
CONTINUOUS
62
7
100
AcDbLine
10
7911.582725207150
20
4436.810307384264
30
0.0
11
7692.087299963143
21
4457.951509815698
31
0.0
0
ARC
5
58b
100
AcDbEntity
8
0-C
6
CONTINUOUS
62
7
100
AcDbCircle
10
7909.665253276576
20
4416.902437046241
30
0.0
40
20.000000000000
100
AcDbArc
50
360.000000000000
51
444.498397275052
0
LINE
5
58c
100
AcDbEntity
8
0-C
6
CONTINUOUS
62
7
100
AcDbLine
10
7886.141331744351
20
3284.808476828509
30
0.0
11
7886.141331744351
21
4421.094542802886
31
0.0
0
LINE
5
58d
100
AcDbEntity
8
0-C
6
CONTINUOUS
62
7
100
AcDbLine
10
7929.665253276576
20
3289.000582585154
30
0.0
11
7929.665253276576
21
4416.902437046241
31
0.0
0
ARC
5
58e
100
AcDbEntity
8
0-C
6
CONTINUOUS
62
7
100
AcDbCircle
10
7312.665253276575
20
3307.164286817005
30
0.0
40
50.000000000000
100
AcDbArc
50
180.000000000000
51
266.155258382101
0
LINE
5
58f
100
AcDbEntity
8
0-C
6
CONTINUOUS
62
7
100
AcDbLine
10
7309.312600684020
20
3257.276816239777
30
0.0
11
7422.711660604547
21
3247.951509815698
31
0.0
0
LINE
5
590
100
AcDbEntity
8
0-C
6
CONTINUOUS
62
7
100
AcDbLine
10
7692.087299963143
20
3247.951509815698
30
0.0
11
7422.711660604547
21
3247.951509815698
31
0.0
0
LINE
5
591
100
AcDbEntity
8
0-C
6
CONTINUOUS
62
7
100
AcDbLine
10
7309.312600684020
20
4448.626203391618
30
0.0
11
7422.711660604547
21
4457.951509815698
31
0.0
0
LINE
5
592
100
AcDbEntity
8
0-C
6
CONTINUOUS
62
7
100
AcDbLine
10
7692.087299963143
20
4457.951509815698
30
0.0
11
7422.711660604547
21
4457.951509815698
31
0.0
0
LINE
5
593
100
AcDbEntity
8
0-C
6
CONTINUOUS
62
7
100
AcDbLine
10
7262.665253276575
20
3307.164286817005
30
0.0
11
7262.665253276575
21
4398.738732814392
31
0.0
0
LINE
5
594
100
AcDbEntity
8
0-C
6
CONTINUOUS
62
7
100
AcDbLine
10
7292.604516365043
20
3369.237081752742
30
0.0
11
7292.604516365043
21
3512.687137779332
31
0.0
0
LINE
5
595
100
AcDbEntity
8
0-C
6
CONTINUOUS
62
7
100
AcDbLine
10
7262.665253276575
20
3369.237081752742
30
0.0
11
7292.604516365043
21
3369.237081752742
31
0.0
0
LINE
5
596
100
AcDbEntity
8
0-C
6
CONTINUOUS
62
7
100
AcDbLine
10
7284.811454971245
20
3267.927283633362
30
0.0
11
7284.811454971245
21
3369.237081752742
31
0.0
0
LINE
5
597
100
AcDbEntity
8
0-C
6
CONTINUOUS
62
7
100
AcDbLine
10
7262.665253276575
20
3512.687137779332
30
0.0
11
7292.604516365043
21
3512.687137779332
31
0.0
0
ARC
5
598
100
AcDbEntity
8
0-C
6
CONTINUOUS
62
7
100
AcDbCircle
10
7312.665253276575
20
4398.738732814392
30
0.0
40
50.000000000000
100
AcDbArc
50
93.844741617899
51
180.000000000000
0
LINE
5
599
100
AcDbEntity
8
0-C
6
CONTINUOUS
62
7
100
AcDbLine
10
7292.604516365043
20
4336.665937878654
30
0.0
11
7292.604516365043
21
4193.215881852063
31
0.0
0
LINE
5
59a
100
AcDbEntity
8
0-C
6
CONTINUOUS
62
7
100
AcDbLine
10
7262.665253276575
20
4336.665937878654
30
0.0
11
7292.604516365043
21
4336.665937878654
31
0.0
0
LINE
5
59b
100
AcDbEntity
8
0-C
6
CONTINUOUS
62
7
100
AcDbLine
10
7284.811454971245
20
4437.975735998036
30
0.0
11
7284.811454971245
21
4336.665937878654
31
0.0
0
LINE
5
59c
100
AcDbEntity
8
0-C
6
CONTINUOUS
62
7
100
AcDbLine
10
7262.665253276575
20
4193.215881852063
30
0.0
11
7292.604516365043
21
4193.215881852063
31
0.0
0
LINE
5
59d
100
AcDbEntity
8
0-C
6
CONTINUOUS
62
7
100
AcDbLine
10
7284.811454971245
20
3512.687137779332
30
0.0
11
7284.811454971245
21
4193.215881852063
31
0.0
0
LINE
5
59e
100
AcDbEntity
8
0-C
6
CONTINUOUS
62
7
100
AcDbLine
10
7871.123707440652
20
2347.915880293363
30
0.0
11
7929.665253276576
21
2404.273040090633
31
0.0
0
ARC
5
59f
100
AcDbEntity
8
0-C
6
CONTINUOUS
62
7
100
AcDbCircle
10
7401.916037615929
20
1465.720033633704
30
0.0
40
10.000000000000
100
AcDbArc
50
270.000000000000
51
360.000000000000
0
ARC
5
5a0
100
AcDbEntity
8
0-C
6
CONTINUOUS
62
7
100
AcDbCircle
10
7373.566051169651
20
1465.720033633704
30
0.0
40
10.000000000000
100
AcDbArc
50
180.000000000000
51
270.000000000000
0
LINE
5
5a1
100
AcDbEntity
8
0-C
6
CONTINUOUS
62
7
100
AcDbLine
10
7401.916037615929
20
1455.720033633704
30
0.0
11
7373.566051169651
21
1455.720033633704
31
0.0
0
LINE
5
5a2
100
AcDbEntity
8
0-C
6
CONTINUOUS
62
7
100
AcDbLine
10
7293.197218327552
20
2425.587729010715
30
0.0
11
7320.221439105803
21
1643.978291985641
31
0.0
0
LINE
5
5a3
100
AcDbEntity
8
0-C
6
CONTINUOUS
62
7
100
AcDbLine
10
7336.900409359505
20
1539.327663112674
30
0.0
11
7354.785535836013
21
1492.587865920732
31
0.0
0
LINE
5
5a4
100
AcDbEntity
8
0-C
6
CONTINUOUS
62
7
100
AcDbLine
10
7438.581679426075
20
1539.327663112674
30
0.0
11
7420.696552949567
21
1492.587865920732
31
0.0
0
LINE
5
5a5
100
AcDbEntity
8
0-C
6
CONTINUOUS
62
7
100
AcDbLine
10
7354.785535836013
20
1492.587865920732
30
0.0
11
7363.566051169651
21
1492.587865920732
31
0.0
0
LINE
5
5a6
100
AcDbEntity
8
0-C
6
CONTINUOUS
62
7
100
AcDbLine
10
7411.916037615929
20
1492.587865920732
30
0.0
11
7420.696552949567
21
1492.587865920732
31
0.0
0
POLYLINE
5
5a7
100
AcDbEntity
8
0-C
6
CONTINUOUS
62
  7
100
AcDb2dPolyline
66
1
10
0.0
20
0.0
30
0.0
70
0
0
VERTEX
5
5a8
100
AcDbEntity
8
0-C
6
CONTINUOUS
62
  7
100
AcDbVertex
100
AcDb2dVertex
10
7885.636828745005
20
2456.180042685407
30
0.0
0
VERTEX
5
5a9
100
AcDbEntity
8
0-C
6
CONTINUOUS
62
  7
100
AcDbVertex
100
AcDb2dVertex
10
7869.775191491119
20
2503.764954447063
30
0.0
0
VERTEX
5
5aa
100
AcDbEntity
8
0-C
6
CONTINUOUS
62
  7
100
AcDbVertex
100
AcDb2dVertex
10
7585.112206590567
20
2523.406753405199
30
0.0
0
VERTEX
5
5ab
100
AcDbEntity
8
0-C
6
CONTINUOUS
62
  7
100
AcDbVertex
100
AcDb2dVertex
10
7325.665755046328
20
2525.849059203737
30
0.0
0
VERTEX
5
5ac
100
AcDbEntity
8
0-C
6
CONTINUOUS
62
  7
100
AcDbVertex
100
AcDb2dVertex
10
7320.556328689554
20
2537.856211142154
30
0.0
0
VERTEX
5
5ad
100
AcDbEntity
8
0-C
6
CONTINUOUS
62
  7
100
AcDbVertex
100
AcDb2dVertex
10
7308.804648068974
20
2541.688280909734
30
0.0
0
VERTEX
5
5ae
100
AcDbEntity
8
0-C
6
CONTINUOUS
62
  7
100
AcDbVertex
100
AcDb2dVertex
10
7291.432598455945
20
2559.060330522764
30
0.0
0
VERTEX
5
5af
100
AcDbEntity
8
0-C
6
CONTINUOUS
62
  7
100
AcDbVertex
100
AcDb2dVertex
10
7282.746573649431
20
2558.374591722250
30
0.0
0
VERTEX
5
5b0
100
AcDbEntity
8
0-C
6
CONTINUOUS
62
  7
100
AcDbVertex
100
AcDb2dVertex
10
7282.746573649431
20
2510.009837497739
30
0.0
0
VERTEX
5
5b1
100
AcDbEntity
8
0-C
6
CONTINUOUS
62
  7
100
AcDbVertex
100
AcDb2dVertex
10
7275.337905432109
20
2496.970581435252
30
0.0
0
SEQEND
5
5b2
100
AcDbEntity
8
0-C
0
LINE
5
5b3
100
AcDbEntity
8
0-C
6
CONTINUOUS
62
7
100
AcDbLine
10
7262.665253276575
20
2426.346646958898
30
0.0
11
7262.665253276575
21
2456.655213516312
31
0.0
0
LINE
5
5b4
100
AcDbEntity
8
0-C
6
CONTINUOUS
62
7
100
AcDbLine
10
7275.337905432109
20
2496.970581435252
30
0.0
11
7275.337905432109
21
2456.655213516312
31
0.0
0
LINE
5
5b5
100
AcDbEntity
8
0-C
6
CONTINUOUS
62
7
100
AcDbLine
10
7262.665253276575
20
2456.655213516312
30
0.0
11
7918.183707409426
21
2456.655213516312
31
0.0
0
LINE
5
5b6
100
AcDbEntity
8
0-C
6
CONTINUOUS
62
7
100
AcDbLine
10
7929.665253276576
20
2404.273040090633
30
0.0
11
7929.665253276576
21
2426.346646958898
31
0.0
0
LINE
5
5b7
100
AcDbEntity
8
0-C
6
CONTINUOUS
62
7
100
AcDbLine
10
7262.665253276575
20
2426.346646958898
30
0.0
11
7929.665253276576
21
2426.346646958898
31
0.0
0
LINE
5
5b8
100
AcDbEntity
8
0-C
6
CONTINUOUS
62
7
100
AcDbLine
10
7918.183707409426
20
2456.655213516312
30
0.0
11
7918.183707409426
21
2426.346646958898
31
0.0
0
ARC
5
5b9
100
AcDbEntity
8
0-C
6
CONTINUOUS
62
7
100
AcDbCircle
10
7401.916037615929
20
1607.192263844210
30
0.0
40
10.000000000000
100
AcDbArc
50
0.000000000000
51
90.000000000000
0
ARC
5
5ba
100
AcDbEntity
8
0-C
6
CONTINUOUS
62
7
100
AcDbCircle
10
7373.566051169651
20
1607.192263844210
30
0.0
40
10.000000000000
100
AcDbArc
50
90.000000000000
51
180.000000000000
0
LINE
5
5bb
100
AcDbEntity
8
0-C
6
CONTINUOUS
62
7
100
AcDbLine
10
7401.916037615929
20
1617.192263844210
30
0.0
11
7373.566051169651
21
1617.192263844210
31
0.0
0
LINE
5
5bc
100
AcDbEntity
8
0-C
6
CONTINUOUS
62
7
100
AcDbLine
10
7411.916037615929
20
1465.720033633704
30
0.0
11
7411.916037615929
21
1607.192263844210
31
0.0
0
LINE
5
5bd
100
AcDbEntity
8
0-C
6
CONTINUOUS
62
7
100
AcDbLine
10
7363.566051169651
20
1465.720033633704
30
0.0
11
7363.566051169651
21
1607.192263844210
31
0.0
0
LINE
5
5be
100
AcDbEntity
8
0-C
6
CONTINUOUS
62
7
100
AcDbLine
10
7336.900409359505
20
1539.327663112674
30
0.0
11
7336.900409359505
21
1648.990969158750
31
0.0
0
POLYLINE
5
5bf
100
AcDbEntity
8
0-C
6
CONTINUOUS
62
  7
100
AcDb2dPolyline
66
1
10
0.0
20
0.0
30
0.0
70
0
0
VERTEX
5
5c0
100
AcDbEntity
8
0-C
6
CONTINUOUS
62
  7
100
AcDbVertex
100
AcDb2dVertex
10
7438.581679426075
20
1636.595601074865
30
0.0
0
VERTEX
5
5c1
100
AcDbEntity
8
0-C
6
CONTINUOUS
62
  7
100
AcDbVertex
100
AcDb2dVertex
10
7326.328109365333
20
1636.595601074865
30
0.0
0
VERTEX
5
5c2
100
AcDbEntity
8
0-C
6
CONTINUOUS
62
  7
100
AcDbVertex
100
AcDb2dVertex
10
7320.221439105803
20
1643.978291985641
30
0.0
0
SEQEND
5
5c3
100
AcDbEntity
8
0-C
0
LINE
5
5c4
100
AcDbEntity
8
0-C
6
CONTINUOUS
62
7
100
AcDbLine
10
7438.581679426075
20
1539.887905926771
30
0.0
11
7438.581679426075
21
1648.990969158750
31
0.0
0
ARC
5
5c5
100
AcDbEntity
8
0-C
6
CONTINUOUS
62
7
100
AcDbCircle
10
7754.265578798075
20
1465.720033633704
30
0.0
40
10.000000000000
100
AcDbArc
50
180.000000000000
51
270.000000000000
0
ARC
5
5c6
100
AcDbEntity
8
0-C
6
CONTINUOUS
62
7
100
AcDbCircle
10
7782.615565244352
20
1465.720033633704
30
0.0
40
10.000000000000
100
AcDbArc
50
270.000000000000
51
360.000000000000
0
LINE
5
5c7
100
AcDbEntity
8
0-C
6
CONTINUOUS
62
7
100
AcDbLine
10
7754.265578798075
20
1455.720033633704
30
0.0
11
7782.615565244352
21
1455.720033633704
31
0.0
0
LINE
5
5c8
100
AcDbEntity
8
0-C
6
CONTINUOUS
62
7
100
AcDbLine
10
7819.281207054499
20
1539.327663112674
30
0.0
11
7801.396080577990
21
1492.587865920732
31
0.0
0
LINE
5
5c9
100
AcDbEntity
8
0-C
6
CONTINUOUS
62
7
100
AcDbLine
10
7717.599936987928
20
1539.327663112674
30
0.0
11
7735.485063464437
21
1492.587865920732
31
0.0
0
LINE
5
5ca
100
AcDbEntity
8
0-C
6
CONTINUOUS
62
7
100
AcDbLine
10
7801.396080577990
20
1492.587865920732
30
0.0
11
7792.615565244352
21
1492.587865920732
31
0.0
0
LINE
5
5cb
100
AcDbEntity
8
0-C
6
CONTINUOUS
62
7
100
AcDbLine
10
7744.265578798075
20
1492.587865920732
30
0.0
11
7735.485063464437
21
1492.587865920732
31
0.0
0
ARC
5
5cc
100
AcDbEntity
8
0-C
6
CONTINUOUS
62
7
100
AcDbCircle
10
7754.265578798075
20
1607.192263844210
30
0.0
40
10.000000000000
100
AcDbArc
50
90.000000000000
51
180.000000000000
0
ARC
5
5cd
100
AcDbEntity
8
0-C
6
CONTINUOUS
62
7
100
AcDbCircle
10
7782.615565244352
20
1607.192263844210
30
0.0
40
10.000000000000
100
AcDbArc
50
0.000000000000
51
90.000000000000
0
LINE
5
5ce
100
AcDbEntity
8
0-C
6
CONTINUOUS
62
7
100
AcDbLine
10
7754.265578798075
20
1617.192263844210
30
0.0
11
7782.615565244352
21
1617.192263844210
31
0.0
0
LINE
5
5cf
100
AcDbEntity
8
0-C
6
CONTINUOUS
62
7
100
AcDbLine
10
7744.265578798075
20
1465.720033633704
30
0.0
11
7744.265578798075
21
1607.192263844210
31
0.0
0
LINE
5
5d0
100
AcDbEntity
8
0-C
6
CONTINUOUS
62
7
100
AcDbLine
10
7792.615565244352
20
1465.720033633704
30
0.0
11
7792.615565244352
21
1607.192263844210
31
0.0
0
LINE
5
5d1
100
AcDbEntity
8
0-C
6
CONTINUOUS
62
7
100
AcDbLine
10
7717.599936987928
20
1539.887905926771
30
0.0
11
7717.599936987928
21
1648.990969158750
31
0.0
0
LINE
5
5d2
100
AcDbEntity
8
0-C
6
CONTINUOUS
62
7
100
AcDbLine
10
7717.599936987928
20
1636.595601074865
30
0.0
11
7829.853507048670
21
1636.595601074865
31
0.0
0
LINE
5
5d3
100
AcDbEntity
8
0-C
6
CONTINUOUS
62
7
100
AcDbLine
10
7336.900409359505
20
1648.990969158750
30
0.0
11
7819.281207054499
21
1648.990969158750
31
0.0
0
LINE
5
5d4
100
AcDbEntity
8
0-C
6
CONTINUOUS
62
7
100
AcDbLine
10
7819.281207054499
20
1539.327663112674
30
0.0
11
7819.281207054499
21
1648.990969158750
31
0.0
0
LINE
5
5d5
100
AcDbEntity
8
0-C
6
CONTINUOUS
62
7
100
AcDbLine
10
7871.123707440652
20
2347.915880293363
30
0.0
11
7848.628008304390
21
1659.293132443721
31
0.0
0
LINE
5
5d6
100
AcDbEntity
8
0-C
6
CONTINUOUS
62
7
100
AcDbLine
10
7829.853507048670
20
1636.595601074865
30
0.0
11
7848.628008304390
21
1659.293132443721
31
0.0
0
LINE
5
5d7
100
AcDbEntity
8
0-C
6
CONTINUOUS
62
7
100
AcDbLine
10
7717.599936987928
20
1621.766813358927
30
0.0
11
7438.581679426075
21
1621.766813358927
31
0.0
0
POLYLINE
5
5d8
100
AcDbEntity
  8
0-1
6
CONTINUOUS
62
4
100
AcDb2dPolyline
66
1
10
0
20
0
70
1
40
8.000
41
8.000
0
VERTEX
5
5d9
100
AcDbEntity
  8
0-1
6
CONTINUOUS
62
4
100
AcDbVertex
100
AcDb2dVertex
10
6963.553
20
3247.952
30
0.0
42
1.000
0
VERTEX
5
5da
100
AcDbEntity
  8
0-1
6
CONTINUOUS
62
4
100
AcDbVertex
100
AcDb2dVertex
10
6971.553
20
3247.952
30
0.0
42
1.000
0
SEQEND
5
5db
100
AcDbEntity
  8
0-1
0
POLYLINE
5
5dc
100
AcDbEntity
  8
0-1
6
CONTINUOUS
62
4
100
AcDb2dPolyline
66
1
10
0
20
0
70
1
40
8.000
41
8.000
0
VERTEX
5
5dd
100
AcDbEntity
  8
0-1
6
CONTINUOUS
62
4
100
AcDbVertex
100
AcDb2dVertex
10
6963.553
20
4457.952
30
0.0
42
1.000
0
VERTEX
5
5de
100
AcDbEntity
  8
0-1
6
CONTINUOUS
62
4
100
AcDbVertex
100
AcDb2dVertex
10
6971.553
20
4457.952
30
0.0
42
1.000
0
SEQEND
5
5df
100
AcDbEntity
  8
0-1
0
LINE
5
5e0
100
AcDbEntity
8
0-1
6
CONTINUOUS
62
4
100
AcDbLine
10
6967.553118034004
20
3247.951509815698
30
0.0
11
7159.750444147456
21
3247.951509815698
31
0.0
0
LINE
5
5e1
100
AcDbEntity
8
0-1
6
CONTINUOUS
62
4
100
AcDbLine
10
6967.553118034004
20
4457.951509815698
30
0.0
11
7159.750444147456
21
4457.951509815698
31
0.0
0
LINE
5
5e2
100
AcDbEntity
8
0-1
6
CONTINUOUS
62
4
100
AcDbLine
10
6967.553118034004
20
3247.951509815698
30
0.0
11
6967.553118034004
21
4457.951509815698
31
0.0
0
TEXT
5
5e3
100
AcDbEntity
8
0-1
62
4
370
-3
100
AcDbText
10
6956.808
20
3780.752
30
0.0
40
58.905
41
0.603
50
90.000
1
1,210
72
1
11
6963.353
21
3855.752
31
0.0
100
AcDbText
73
1
0
POLYLINE
5
5e4
100
AcDbEntity
  8
0-1
6
CONTINUOUS
62
4
100
AcDb2dPolyline
66
1
10
0
20
0
70
1
40
8.000
41
8.000
0
VERTEX
5
5e5
100
AcDbEntity
  8
0-1
6
CONTINUOUS
62
4
100
AcDbVertex
100
AcDb2dVertex
10
6963.553
20
1455.720
30
0.0
42
1.000
0
VERTEX
5
5e6
100
AcDbEntity
  8
0-1
6
CONTINUOUS
62
4
100
AcDbVertex
100
AcDb2dVertex
10
6971.553
20
1455.720
30
0.0
42
1.000
0
SEQEND
5
5e7
100
AcDbEntity
  8
0-1
0
LINE
5
5e8
100
AcDbEntity
8
0-1
6
CONTINUOUS
62
4
100
AcDbLine
10
6967.553118034004
20
1455.720033633704
30
0.0
11
7159.750444147456
21
1455.720033633704
31
0.0
0
POLYLINE
5
5e9
100
AcDbEntity
  8
0-1
6
CONTINUOUS
62
4
100
AcDb2dPolyline
66
1
10
0
20
0
70
1
40
8.000
41
8.000
0
VERTEX
5
5ea
100
AcDbEntity
  8
0-1
6
CONTINUOUS
62
4
100
AcDbVertex
100
AcDb2dVertex
10
6963.553
20
2552.511
30
0.0
42
1.000
0
VERTEX
5
5eb
100
AcDbEntity
  8
0-1
6
CONTINUOUS
62
4
100
AcDbVertex
100
AcDb2dVertex
10
6971.553
20
2552.511
30
0.0
42
1.000
0
SEQEND
5
5ec
100
AcDbEntity
  8
0-1
0
LINE
5
5ed
100
AcDbEntity
8
0-1
6
CONTINUOUS
62
4
100
AcDbLine
10
6967.553118034004
20
2552.510616384670
30
0.0
11
7159.750444147456
21
2552.510616384670
31
0.0
0
LINE
5
5ee
100
AcDbEntity
8
0-1
6
CONTINUOUS
62
4
100
AcDbLine
10
6967.553118034004
20
1455.720033633704
30
0.0
11
6967.553118034004
21
2552.510616384670
31
0.0
0
TEXT
5
5ef
100
AcDbEntity
8
0-1
62
4
370
-3
100
AcDbText
10
6956.808
20
1931.915
30
0.0
40
58.905
41
0.576
50
90.000
1
1,097
72
1
11
6963.353
21
2006.915
31
0.0
100
AcDbText
73
1
0
MTEXT
5
5f0
100
AcDbEntity
8
0-6
62
3
370
-3
100
AcDbMText
10
3155.530
20
914.549
30
0.0
40
79.475
41
0.000
71
7
72
1
1
\W0.836;{\W0.602;140}リットル型
7
STANDARD
11
1.00000
21
0.00000
31
0.0
0
MTEXT
5
5f1
100
AcDbEntity
8
0-6
62
3
370
-3
100
AcDbMText
10
4486.586
20
914.549
30
0.0
40
79.475
41
0.000
71
7
72
1
1
\W0.836;{\W0.602;180}リットル型
7
STANDARD
11
1.00000
21
0.00000
31
0.0
0
MTEXT
5
5f2
100
AcDbEntity
8
0-6
62
3
370
-3
100
AcDbMText
10
5817.642
20
914.549
30
0.0
40
79.475
41
0.000
71
7
72
1
1
\W0.836;{\W0.602;240}リットル型
7
STANDARD
11
1.00000
21
0.00000
31
0.0
0
MTEXT
5
5f3
100
AcDbEntity
8
0-6
62
3
370
-3
100
AcDbMText
10
1824.475
20
914.549
30
0.0
40
79.475
41
0.000
71
7
72
1
1
\W0.836;{\W0.602;120}リットル型
7
STANDARD
11
1.00000
21
0.00000
31
0.0
0
MTEXT
5
5f4
100
AcDbEntity
8
0-6
62
3
370
-3
100
AcDbMText
10
493.419
20
1054.549
30
0.0
40
79.475
41
0.000
71
7
72
1
1
\W0.836;{\W0.602;Citybac }２輪キャスター式
7
STANDARD
11
1.00000
21
0.00000
31
0.0
0
MTEXT
5
5f5
100
AcDbEntity
8
0-6
62
3
370
-3
100
AcDbMText
10
493.419
20
914.549
30
0.0
40
79.475
41
0.000
71
7
72
1
1
\W0.836;{\W0.602;80}リットル型
7
STANDARD
11
1.00000
21
0.00000
31
0.0
0
MTEXT
5
5f6
100
AcDbEntity
8
0-6
62
3
370
-3
100
AcDbMText
10
7148.697
20
1054.549
30
0.0
40
79.475
41
0.000
71
7
72
1
1
\W0.836;{\W0.602;Citybac }４輪キャスター式
7
STANDARD
11
1.00000
21
0.00000
31
0.0
0
MTEXT
5
5f7
100
AcDbEntity
8
0-6
62
3
370
-3
100
AcDbMText
10
7148.697
20
914.549
30
0.0
40
79.475
41
0.000
71
7
72
1
1
\W0.836;{\W0.602;500}リットル型
7
STANDARD
11
1.00000
21
0.00000
31
0.0
0
MTEXT
5
5f8
100
AcDbEntity
8
0-6
62
3
370
-3
100
AcDbMText
10
5817.642
20
1054.549
30
0.0
40
79.475
41
0.000
71
7
72
1
1
\W0.836;{\W0.602;Citybac }２輪キャスター式
7
STANDARD
11
1.00000
21
0.00000
31
0.0
0
LINE
5
5f9
100
AcDbEntity
8
0-B
6
CONTINUOUS
62
6
100
AcDbLine
10
268.944438291085
20
1455.720033633704
30
0.0
11
8158.526430554121
21
1455.720033633704
31
0.0
0
LINE
5
5fa
100
AcDbEntity
8
F-F_J_ADD
6
HIDDEN
62
7
100
AcDbLine
10
7929.665253276576
20
3852.951509815698
30
0.0
11
7262.665253276575
21
3852.951509815698
31
0.0
0
MTEXT
5
5fb
100
AcDbEntity
8
0-6
62
3
370
-3
100
AcDbMText
10
4486.586
20
1054.549
30
0.0
40
79.475
41
0.000
71
7
72
1
1
\W0.836;{\W0.602;Citybac }２輪キャスター式
7
STANDARD
11
1.00000
21
0.00000
31
0.0
0
MTEXT
5
5fc
100
AcDbEntity
8
0-6
62
3
370
-3
100
AcDbMText
10
3155.530
20
1054.549
30
0.0
40
79.475
41
0.000
71
7
72
1
1
\W0.836;{\W0.602;Citybac }２輪キャスター式
7
STANDARD
11
1.00000
21
0.00000
31
0.0
0
MTEXT
5
5fd
100
AcDbEntity
8
0-6
62
3
370
-3
100
AcDbMText
10
1824.475
20
1054.549
30
0.0
40
79.475
41
0.000
71
7
72
1
1
\W0.836;{\W0.602;Citybac }２輪キャスター式
7
STANDARD
11
1.00000
21
0.00000
31
0.0
0
ARC
5
5fe
100
AcDbEntity
8
0-C
6
CONTINUOUS
62
7
100
AcDbCircle
10
1090.387012383615
20
4050.951509815697
30
0.0
40
27.000000000000
100
AcDbArc
50
0.000000000000
51
90.000000000000
0
LINE
5
5ff
100
AcDbEntity
8
0-C
6
CONTINUOUS
62
7
100
AcDbLine
10
765.967207306909
20
4077.951509815698
30
0.0
11
1090.387012383615
21
4077.951509815698
31
0.0
0
ARC
5
600
100
AcDbEntity
8
0-C
6
CONTINUOUS
62
7
100
AcDbCircle
10
765.967207306909
20
3997.951509815698
30
0.0
40
80.000000000000
100
AcDbArc
50
90.000000000000
51
171.193207305565
0
LINE
5
601
100
AcDbEntity
8
0-C
6
CONTINUOUS
62
7
100
AcDbLine
10
686.910388324208
20
4010.199749376397
30
0.0
11
670.237367883455
21
3902.582981076993
31
0.0
0
LINE
5
602
100
AcDbEntity
8
0-C
6
CONTINUOUS
62
7
100
AcDbLine
10
604.260536060177
20
4007.544118307140
30
0.0
11
604.260536060177
21
4016.535746440322
31
0.0
0
LINE
5
603
100
AcDbEntity
8
0-C
6
CONTINUOUS
62
7
100
AcDbLine
10
639.693358674938
20
4016.535746440322
30
0.0
11
639.693358674938
21
4020.756306584469
31
0.0
0
LINE
5
604
100
AcDbEntity
8
0-C
6
CONTINUOUS
62
7
100
AcDbLine
10
607.387012383615
20
4016.535746440322
30
0.0
11
607.387012383615
21
4020.756306584469
31
0.0
0
LINE
5
605
100
AcDbEntity
8
0-C
6
CONTINUOUS
62
7
100
AcDbLine
10
639.693358674938
20
4020.756306584469
30
0.0
11
607.387012383615
21
4020.756306584469
31
0.0
0
LINE
5
606
100
AcDbEntity
8
0-C
6
CONTINUOUS
62
7
100
AcDbLine
10
688.155729046437
20
4016.535746440322
30
0.0
11
604.260536060177
21
4016.535746440322
31
0.0
0
LINE
5
607
100
AcDbEntity
8
0-C
6
CONTINUOUS
62
7
100
AcDbLine
10
686.544402884440
20
4007.544118307140
30
0.0
11
604.260536060177
21
4007.544118307140
31
0.0
0
ARC
5
608
100
AcDbEntity
8
0-C
6
CONTINUOUS
62
7
100
AcDbCircle
10
1090.387012383615
20
3654.951509815697
30
0.0
40
27.000000000000
100
AcDbArc
50
270.000000000000
51
360.000000000000
0
LINE
5
609
100
AcDbEntity
8
0-C
6
CONTINUOUS
62
7
100
AcDbLine
10
765.967207306909
20
3627.951509815698
30
0.0
11
1090.387012383615
21
3627.951509815698
31
0.0
0
ARC
5
60a
100
AcDbEntity
8
0-C
6
CONTINUOUS
62
7
100
AcDbCircle
10
765.967207306909
20
3707.951509815698
30
0.0
40
80.000000000000
100
AcDbArc
50
188.806792694435
51
270.000000000000
0
LINE
5
60b
100
AcDbEntity
8
0-C
6
CONTINUOUS
62
7
100
AcDbLine
10
686.910388324208
20
3695.703270254997
30
0.0
11
670.237367883455
21
3803.320038554402
31
0.0
0
LINE
5
60c
100
AcDbEntity
8
0-C
6
CONTINUOUS
62
7
100
AcDbLine
10
604.260536060177
20
3698.358901324255
30
0.0
11
604.260536060177
21
3689.367273191072
31
0.0
0
LINE
5
60d
100
AcDbEntity
8
0-C
6
CONTINUOUS
62
7
100
AcDbLine
10
639.693358674938
20
3689.367273191072
30
0.0
11
639.693358674938
21
3685.146713046925
31
0.0
0
LINE
5
60e
100
AcDbEntity
8
0-C
6
CONTINUOUS
62
7
100
AcDbLine
10
607.387012383615
20
3689.367273191072
30
0.0
11
607.387012383615
21
3685.146713046925
31
0.0
0
LINE
5
60f
100
AcDbEntity
8
0-C
6
CONTINUOUS
62
7
100
AcDbLine
10
639.693358674938
20
3685.146713046925
30
0.0
11
607.387012383615
21
3685.146713046925
31
0.0
0
LINE
5
610
100
AcDbEntity
8
0-C
6
CONTINUOUS
62
7
100
AcDbLine
10
688.155729046437
20
3689.367273191072
30
0.0
11
604.260536060177
21
3689.367273191072
31
0.0
0
LINE
5
611
100
AcDbEntity
8
0-C
6
CONTINUOUS
62
7
100
AcDbLine
10
686.544402884440
20
3698.358901324255
30
0.0
11
604.260536060177
21
3698.358901324255
31
0.0
0
LINE
5
612
100
AcDbEntity
8
0-C
6
CONTINUOUS
62
7
100
AcDbLine
10
1117.387012383615
20
3654.951509815697
30
0.0
11
1117.387012383615
21
4050.951509815697
31
0.0
0
LINE
5
613
100
AcDbEntity
8
0-C
6
CONTINUOUS
62
7
100
AcDbLine
10
670.237367883455
20
3803.320038554402
30
0.0
11
670.237367883455
21
3902.582981076993
31
0.0
0
LINE
5
614
100
AcDbEntity
8
0-C
6
CONTINUOUS
62
7
100
AcDbLine
10
639.693358674938
20
3698.358901324255
30
0.0
11
639.693358674938
21
4007.544118307140
31
0.0
0
LINE
5
615
100
AcDbEntity
8
0-C
6
CONTINUOUS
62
7
100
AcDbLine
10
607.387012383615
20
3698.358901324255
30
0.0
11
607.387012383615
21
4007.544118307140
31
0.0
0
POLYLINE
5
616
100
AcDbEntity
  8
0-1
6
CONTINUOUS
62
4
100
AcDb2dPolyline
66
1
10
0
20
0
70
1
40
8.000
41
8.000
0
VERTEX
5
617
100
AcDbEntity
  8
0-1
6
CONTINUOUS
62
4
100
AcDbVertex
100
AcDb2dVertex
10
308.275
20
3627.952
30
0.0
42
1.000
0
VERTEX
5
618
100
AcDbEntity
  8
0-1
6
CONTINUOUS
62
4
100
AcDbVertex
100
AcDb2dVertex
10
316.275
20
3627.952
30
0.0
42
1.000
0
SEQEND
5
619
100
AcDbEntity
  8
0-1
0
POLYLINE
5
61a
100
AcDbEntity
  8
0-1
6
CONTINUOUS
62
4
100
AcDb2dPolyline
66
1
10
0
20
0
70
1
40
8.000
41
8.000
0
VERTEX
5
61b
100
AcDbEntity
  8
0-1
6
CONTINUOUS
62
4
100
AcDbVertex
100
AcDb2dVertex
10
308.275
20
4077.952
30
0.0
42
1.000
0
VERTEX
5
61c
100
AcDbEntity
  8
0-1
6
CONTINUOUS
62
4
100
AcDbVertex
100
AcDb2dVertex
10
316.275
20
4077.952
30
0.0
42
1.000
0
SEQEND
5
61d
100
AcDbEntity
  8
0-1
0
LINE
5
61e
100
AcDbEntity
8
0-1
6
CONTINUOUS
62
4
100
AcDbLine
10
312.274877141044
20
3627.951509815697
30
0.0
11
312.274877141044
21
4077.951509815698
31
0.0
0
TEXT
5
61f
100
AcDbEntity
8
0-1
62
4
370
-3
100
AcDbText
10
301.530
20
3810.752
30
0.0
40
58.905
41
0.474
50
90.000
1
450
72
1
11
308.075
21
3855.752
31
0.0
100
AcDbText
73
1
0
LINE
5
620
100
AcDbEntity
8
0-1
6
CONTINUOUS
62
4
100
AcDbLine
10
312.274877141044
20
3627.951509815697
30
0.0
11
489.418928882725
21
3627.951509815697
31
0.0
0
LINE
5
621
100
AcDbEntity
8
0-1
6
CONTINUOUS
62
4
100
AcDbLine
10
312.274877141044
20
4077.951509815698
30
0.0
11
489.418928882725
21
4077.951509815698
31
0.0
0
ARC
5
622
100
AcDbEntity
8
0-C
6
CONTINUOUS
62
7
100
AcDbCircle
10
2468.442660562207
20
3632.951509815698
30
0.0
40
20.000000000000
100
AcDbArc
50
270.000000000000
51
360.000000000000
0
POLYLINE
5
623
100
AcDbEntity
8
0-C
6
CONTINUOUS
62
  7
100
AcDb2dPolyline
66
1
10
0.0
20
0.0
30
0.0
70
0
0
VERTEX
5
624
100
AcDbEntity
8
0-C
6
CONTINUOUS
62
  7
100
AcDbVertex
100
AcDb2dVertex
10
2447.110524685886
20
3661.643759732938
30
0.0
0
VERTEX
5
625
100
AcDbEntity
8
0-C
6
CONTINUOUS
62
  7
100
AcDbVertex
100
AcDb2dVertex
10
2430.007475664126
20
3659.321369100092
30
0.0
0
VERTEX
5
626
100
AcDbEntity
8
0-C
6
CONTINUOUS
62
  7
100
AcDbVertex
100
AcDb2dVertex
10
2400.513820506372
20
3655.374777933562
30
0.0
0
VERTEX
5
627
100
AcDbEntity
8
0-C
6
CONTINUOUS
62
  7
100
AcDbVertex
100
AcDb2dVertex
10
2371.004499784739
20
3651.587994028811
30
0.0
0
VERTEX
5
628
100
AcDbEntity
8
0-C
6
CONTINUOUS
62
  7
100
AcDbVertex
100
AcDb2dVertex
10
2341.469598585379
20
3648.062161222409
30
0.0
0
VERTEX
5
629
100
AcDbEntity
8
0-C
6
CONTINUOUS
62
  7
100
AcDbVertex
100
AcDb2dVertex
10
2311.899201994444
20
3644.898423350924
30
0.0
0
VERTEX
5
62a
100
AcDbEntity
8
0-C
6
CONTINUOUS
62
  7
100
AcDbVertex
100
AcDb2dVertex
10
2282.283395098085
20
3642.197924250926
30
0.0
0
VERTEX
5
62b
100
AcDbEntity
8
0-C
6
CONTINUOUS
62
  7
100
AcDbVertex
100
AcDb2dVertex
10
2265.081513104621
20
3640.883746709110
30
0.0
0
VERTEX
5
62c
100
AcDbEntity
8
0-C
6
CONTINUOUS
62
  7
100
AcDbVertex
100
AcDb2dVertex
10
2250.622648790815
20
3639.939756570549
30
0.0
0
SEQEND
5
62d
100
AcDbEntity
8
0-C
0
ARC
5
62e
100
AcDbEntity
8
0-C
6
CONTINUOUS
62
7
100
AcDbCircle
10
2468.442660562207
20
4072.951509815698
30
0.0
40
20.000000000000
100
AcDbArc
50
360.000000000000
51
450.000000000000
0
POLYLINE
5
62f
100
AcDbEntity
8
0-C
6
CONTINUOUS
62
  7
100
AcDb2dPolyline
66
1
10
0.0
20
0.0
30
0.0
70
0
0
VERTEX
5
630
100
AcDbEntity
8
0-C
6
CONTINUOUS
62
  7
100
AcDbVertex
100
AcDb2dVertex
10
2447.110524685886
20
4044.259259898457
30
0.0
0
VERTEX
5
631
100
AcDbEntity
8
0-C
6
CONTINUOUS
62
  7
100
AcDbVertex
100
AcDb2dVertex
10
2430.007475664126
20
4046.581650531303
30
0.0
0
VERTEX
5
632
100
AcDbEntity
8
0-C
6
CONTINUOUS
62
  7
100
AcDbVertex
100
AcDb2dVertex
10
2400.513820506372
20
4050.528241697833
30
0.0
0
VERTEX
5
633
100
AcDbEntity
8
0-C
6
CONTINUOUS
62
  7
100
AcDbVertex
100
AcDb2dVertex
10
2371.004499784739
20
4054.315025602584
30
0.0
0
VERTEX
5
634
100
AcDbEntity
8
0-C
6
CONTINUOUS
62
  7
100
AcDbVertex
100
AcDb2dVertex
10
2341.469598585379
20
4057.840858408986
30
0.0
0
VERTEX
5
635
100
AcDbEntity
8
0-C
6
CONTINUOUS
62
  7
100
AcDbVertex
100
AcDb2dVertex
10
2311.899201994444
20
4061.004596280471
30
0.0
0
VERTEX
5
636
100
AcDbEntity
8
0-C
6
CONTINUOUS
62
  7
100
AcDbVertex
100
AcDb2dVertex
10
2282.283395098085
20
4063.705095380469
30
0.0
0
VERTEX
5
637
100
AcDbEntity
8
0-C
6
CONTINUOUS
62
  7
100
AcDbVertex
100
AcDb2dVertex
10
2265.081513104621
20
4065.019272922285
30
0.0
0
VERTEX
5
638
100
AcDbEntity
8
0-C
6
CONTINUOUS
62
  7
100
AcDbVertex
100
AcDb2dVertex
10
2250.622648790815
20
4065.963263060846
30
0.0
0
SEQEND
5
639
100
AcDbEntity
8
0-C
0
LINE
5
63a
100
AcDbEntity
8
0-C
6
CONTINUOUS
62
7
100
AcDbLine
10
2488.442660562207
20
3632.951509815698
30
0.0
11
2488.442660562207
21
4072.951509815698
31
0.0
0
LINE
5
63b
100
AcDbEntity
8
0-C
6
CONTINUOUS
62
7
100
AcDbLine
10
2447.110524685886
20
4044.259259898457
30
0.0
11
2447.110524685886
21
3661.643759732938
31
0.0
0
POLYLINE
5
63c
100
AcDbEntity
8
0-C
6
CONTINUOUS
62
  7
100
AcDb2dPolyline
66
1
10
0.0
20
0.0
30
0.0
70
0
0
VERTEX
5
63d
100
AcDbEntity
8
0-C
6
CONTINUOUS
62
  7
100
AcDbVertex
100
AcDb2dVertex
10
2250.622648790815
20
3639.939756570549
30
0.0
0
VERTEX
5
63e
100
AcDbEntity
8
0-C
6
CONTINUOUS
62
  7
100
AcDbVertex
100
AcDb2dVertex
10
2217.917505028899
20
3638.665372481147
30
0.0
0
VERTEX
5
63f
100
AcDbEntity
8
0-C
6
CONTINUOUS
62
  7
100
AcDbVertex
100
AcDb2dVertex
10
2192.938301041264
20
3637.847384155267
30
0.0
0
VERTEX
5
640
100
AcDbEntity
8
0-C
6
CONTINUOUS
62
  7
100
AcDbVertex
100
AcDb2dVertex
10
2167.948394788158
20
3637.496635776261
30
0.0
0
VERTEX
5
641
100
AcDbEntity
8
0-C
6
CONTINUOUS
62
  7
100
AcDbVertex
100
AcDb2dVertex
10
2142.960327991995
20
3637.623971527483
30
0.0
0
VERTEX
5
642
100
AcDbEntity
8
0-C
6
CONTINUOUS
62
  7
100
AcDbVertex
100
AcDb2dVertex
10
2117.986642375189
20
3638.240235592286
30
0.0
0
VERTEX
5
643
100
AcDbEntity
8
0-C
6
CONTINUOUS
62
  7
100
AcDbVertex
100
AcDb2dVertex
10
2103.513436264624
20
3638.825968875293
30
0.0
0
VERTEX
5
644
100
AcDbEntity
8
0-C
6
CONTINUOUS
62
  7
100
AcDbVertex
100
AcDb2dVertex
10
2087.930239961826
20
3639.644187640273
30
0.0
0
VERTEX
5
645
100
AcDbEntity
8
0-C
6
CONTINUOUS
62
  7
100
AcDbVertex
100
AcDb2dVertex
10
2061.090361383422
20
3641.464843681379
30
0.0
0
VERTEX
5
646
100
AcDbEntity
8
0-C
6
CONTINUOUS
62
  7
100
AcDbVertex
100
AcDb2dVertex
10
2034.280004338744
20
3643.722370968977
30
0.0
0
VERTEX
5
647
100
AcDbEntity
8
0-C
6
CONTINUOUS
62
  7
100
AcDbVertex
100
AcDb2dVertex
10
2007.492723078071
20
3646.321382768028
30
0.0
0
VERTEX
5
648
100
AcDbEntity
8
0-C
6
CONTINUOUS
62
  7
100
AcDbVertex
100
AcDb2dVertex
10
1980.722071851681
20
3649.166492343488
30
0.0
0
VERTEX
5
649
100
AcDbEntity
8
0-C
6
CONTINUOUS
62
  7
100
AcDbVertex
100
AcDb2dVertex
10
1953.961604909851
20
3652.162312960315
30
0.0
0
VERTEX
5
64a
100
AcDbEntity
8
0-C
6
CONTINUOUS
62
  7
100
AcDbVertex
100
AcDb2dVertex
10
1938.442660562207
20
3653.931357383512
30
0.0
0
SEQEND
5
64b
100
AcDbEntity
8
0-C
0
LINE
5
64c
100
AcDbEntity
8
0-C
6
CONTINUOUS
62
7
100
AcDbLine
10
2468.442660562207
20
3612.951509815698
30
0.0
11
2067.850490321948
21
3612.951509815698
31
0.0
0
LINE
5
64d
100
AcDbEntity
8
0-C
6
CONTINUOUS
62
7
100
AcDbLine
10
1983.259886187376
20
3625.753924964554
30
0.0
11
1983.259886187376
21
3648.896780568225
31
0.0
0
POLYLINE
5
64e
100
AcDbEntity
8
0-C
6
CONTINUOUS
62
  7
100
AcDb2dPolyline
66
1
10
0.0
20
0.0
30
0.0
70
0
0
VERTEX
5
64f
100
AcDbEntity
8
0-C
6
CONTINUOUS
62
  7
100
AcDbVertex
100
AcDb2dVertex
10
1983.259886187376
20
3625.753924964554
30
0.0
0
VERTEX
5
650
100
AcDbEntity
8
0-C
6
CONTINUOUS
62
  7
100
AcDbVertex
100
AcDb2dVertex
10
1987.269340062491
20
3624.867524147167
30
0.0
0
VERTEX
5
651
100
AcDbEntity
8
0-C
6
CONTINUOUS
62
  7
100
AcDbVertex
100
AcDb2dVertex
10
1994.184374294690
20
3623.353745201548
30
0.0
0
VERTEX
5
652
100
AcDbEntity
8
0-C
6
CONTINUOUS
62
  7
100
AcDbVertex
100
AcDb2dVertex
10
2001.105471647380
20
3621.880239382986
30
0.0
0
VERTEX
5
653
100
AcDbEntity
8
0-C
6
CONTINUOUS
62
  7
100
AcDbVertex
100
AcDb2dVertex
10
2008.036469538595
20
3620.472496012403
30
0.0
0
VERTEX
5
654
100
AcDbEntity
8
0-C
6
CONTINUOUS
62
  7
100
AcDbVertex
100
AcDb2dVertex
10
2014.981205386368
20
3619.156004410721
30
0.0
0
VERTEX
5
655
100
AcDbEntity
8
0-C
6
CONTINUOUS
62
  7
100
AcDbVertex
100
AcDb2dVertex
10
2021.943516608732
20
3617.956253898860
30
0.0
0
VERTEX
5
656
100
AcDbEntity
8
0-C
6
CONTINUOUS
62
  7
100
AcDbVertex
100
AcDb2dVertex
10
2025.991222296592
20
3617.323933487226
30
0.0
0
VERTEX
5
657
100
AcDbEntity
8
0-C
6
CONTINUOUS
62
  7
100
AcDbVertex
100
AcDb2dVertex
10
2029.909826742618
20
3616.761528429383
30
0.0
0
VERTEX
5
658
100
AcDbEntity
8
0-C
6
CONTINUOUS
62
  7
100
AcDbVertex
100
AcDb2dVertex
10
2036.681440095857
20
3615.894148083830
30
0.0
0
VERTEX
5
659
100
AcDbEntity
8
0-C
6
CONTINUOUS
62
  7
100
AcDbVertex
100
AcDb2dVertex
10
2043.469464111641
20
3615.135772449405
30
0.0
0
VERTEX
5
65a
100
AcDbEntity
8
0-C
6
CONTINUOUS
62
  7
100
AcDbVertex
100
AcDb2dVertex
10
2050.270315675877
20
3614.462601370839
30
0.0
0
VERTEX
5
65b
100
AcDbEntity
8
0-C
6
CONTINUOUS
62
  7
100
AcDbVertex
100
AcDb2dVertex
10
2057.080411674473
20
3613.850834692864
30
0.0
0
VERTEX
5
65c
100
AcDbEntity
8
0-C
6
CONTINUOUS
62
  7
100
AcDbVertex
100
AcDb2dVertex
10
2063.896168993336
20
3613.276672260212
30
0.0
0
VERTEX
5
65d
100
AcDbEntity
8
0-C
6
CONTINUOUS
62
  7
100
AcDbVertex
100
AcDb2dVertex
10
2067.850490321948
20
3612.951509815698
30
0.0
0
SEQEND
5
65e
100
AcDbEntity
8
0-C
0
POLYLINE
5
65f
100
AcDbEntity
8
0-C
6
CONTINUOUS
62
  7
100
AcDb2dPolyline
66
1
10
0.0
20
0.0
30
0.0
70
0
0
VERTEX
5
660
100
AcDbEntity
8
0-C
6
CONTINUOUS
62
  7
100
AcDbVertex
100
AcDb2dVertex
10
2250.622648790815
20
4065.963263060846
30
0.0
0
VERTEX
5
661
100
AcDbEntity
8
0-C
6
CONTINUOUS
62
  7
100
AcDbVertex
100
AcDb2dVertex
10
2217.917505028899
20
4067.237647150248
30
0.0
0
VERTEX
5
662
100
AcDbEntity
8
0-C
6
CONTINUOUS
62
  7
100
AcDbVertex
100
AcDb2dVertex
10
2192.938301041264
20
4068.055635476128
30
0.0
0
VERTEX
5
663
100
AcDbEntity
8
0-C
6
CONTINUOUS
62
  7
100
AcDbVertex
100
AcDb2dVertex
10
2167.948394788158
20
4068.406383855134
30
0.0
0
VERTEX
5
664
100
AcDbEntity
8
0-C
6
CONTINUOUS
62
  7
100
AcDbVertex
100
AcDb2dVertex
10
2142.960327991995
20
4068.279048103912
30
0.0
0
VERTEX
5
665
100
AcDbEntity
8
0-C
6
CONTINUOUS
62
  7
100
AcDbVertex
100
AcDb2dVertex
10
2117.986642375189
20
4067.662784039109
30
0.0
0
VERTEX
5
666
100
AcDbEntity
8
0-C
6
CONTINUOUS
62
  7
100
AcDbVertex
100
AcDb2dVertex
10
2103.513436264624
20
4067.077050756102
30
0.0
0
VERTEX
5
667
100
AcDbEntity
8
0-C
6
CONTINUOUS
62
  7
100
AcDbVertex
100
AcDb2dVertex
10
2087.930239961826
20
4066.258831991122
30
0.0
0
VERTEX
5
668
100
AcDbEntity
8
0-C
6
CONTINUOUS
62
  7
100
AcDbVertex
100
AcDb2dVertex
10
2061.090361383422
20
4064.438175950017
30
0.0
0
VERTEX
5
669
100
AcDbEntity
8
0-C
6
CONTINUOUS
62
  7
100
AcDbVertex
100
AcDb2dVertex
10
2034.280004338744
20
4062.180648662418
30
0.0
0
VERTEX
5
66a
100
AcDbEntity
8
0-C
6
CONTINUOUS
62
  7
100
AcDbVertex
100
AcDb2dVertex
10
2007.492723078071
20
4059.581636863367
30
0.0
0
VERTEX
5
66b
100
AcDbEntity
8
0-C
6
CONTINUOUS
62
  7
100
AcDbVertex
100
AcDb2dVertex
10
1980.722071851681
20
4056.736527287907
30
0.0
0
VERTEX
5
66c
100
AcDbEntity
8
0-C
6
CONTINUOUS
62
  7
100
AcDbVertex
100
AcDb2dVertex
10
1953.961604909851
20
4053.740706671080
30
0.0
0
VERTEX
5
66d
100
AcDbEntity
8
0-C
6
CONTINUOUS
62
  7
100
AcDbVertex
100
AcDb2dVertex
10
1938.442660562207
20
4051.971662247884
30
0.0
0
SEQEND
5
66e
100
AcDbEntity
8
0-C
0
LINE
5
66f
100
AcDbEntity
8
0-C
6
CONTINUOUS
62
7
100
AcDbLine
10
2468.442660562207
20
4092.951509815698
30
0.0
11
2067.850490321948
21
4092.951509815698
31
0.0
0
LINE
5
670
100
AcDbEntity
8
0-C
6
CONTINUOUS
62
7
100
AcDbLine
10
1983.259886187376
20
4080.149094666841
30
0.0
11
1983.259886187376
21
4057.006239063171
31
0.0
0
POLYLINE
5
671
100
AcDbEntity
8
0-C
6
CONTINUOUS
62
  7
100
AcDb2dPolyline
66
1
10
0.0
20
0.0
30
0.0
70
0
0
VERTEX
5
672
100
AcDbEntity
8
0-C
6
CONTINUOUS
62
  7
100
AcDbVertex
100
AcDb2dVertex
10
1983.259886187376
20
4080.149094666841
30
0.0
0
VERTEX
5
673
100
AcDbEntity
8
0-C
6
CONTINUOUS
62
  7
100
AcDbVertex
100
AcDb2dVertex
10
1987.269340062491
20
4081.035495484229
30
0.0
0
VERTEX
5
674
100
AcDbEntity
8
0-C
6
CONTINUOUS
62
  7
100
AcDbVertex
100
AcDb2dVertex
10
1994.184374294690
20
4082.549274429847
30
0.0
0
VERTEX
5
675
100
AcDbEntity
8
0-C
6
CONTINUOUS
62
  7
100
AcDbVertex
100
AcDb2dVertex
10
2001.105471647380
20
4084.022780248409
30
0.0
0
VERTEX
5
676
100
AcDbEntity
8
0-C
6
CONTINUOUS
62
  7
100
AcDbVertex
100
AcDb2dVertex
10
2008.036469538595
20
4085.430523618992
30
0.0
0
VERTEX
5
677
100
AcDbEntity
8
0-C
6
CONTINUOUS
62
  7
100
AcDbVertex
100
AcDb2dVertex
10
2014.981205386368
20
4086.747015220674
30
0.0
0
VERTEX
5
678
100
AcDbEntity
8
0-C
6
CONTINUOUS
62
  7
100
AcDbVertex
100
AcDb2dVertex
10
2021.943516608732
20
4087.946765732535
30
0.0
0
VERTEX
5
679
100
AcDbEntity
8
0-C
6
CONTINUOUS
62
  7
100
AcDbVertex
100
AcDb2dVertex
10
2025.991222296592
20
4088.579086144169
30
0.0
0
VERTEX
5
67a
100
AcDbEntity
8
0-C
6
CONTINUOUS
62
  7
100
AcDbVertex
100
AcDb2dVertex
10
2029.909826742618
20
4089.141491202012
30
0.0
0
VERTEX
5
67b
100
AcDbEntity
8
0-C
6
CONTINUOUS
62
  7
100
AcDbVertex
100
AcDb2dVertex
10
2036.681440095857
20
4090.008871547565
30
0.0
0
VERTEX
5
67c
100
AcDbEntity
8
0-C
6
CONTINUOUS
62
  7
100
AcDbVertex
100
AcDb2dVertex
10
2043.469464111641
20
4090.767247181990
30
0.0
0
VERTEX
5
67d
100
AcDbEntity
8
0-C
6
CONTINUOUS
62
  7
100
AcDbVertex
100
AcDb2dVertex
10
2050.270315675877
20
4091.440418260556
30
0.0
0
VERTEX
5
67e
100
AcDbEntity
8
0-C
6
CONTINUOUS
62
  7
100
AcDbVertex
100
AcDb2dVertex
10
2057.080411674473
20
4092.052184938531
30
0.0
0
VERTEX
5
67f
100
AcDbEntity
8
0-C
6
CONTINUOUS
62
  7
100
AcDbVertex
100
AcDb2dVertex
10
2063.896168993336
20
4092.626347371183
30
0.0
0
VERTEX
5
680
100
AcDbEntity
8
0-C
6
CONTINUOUS
62
  7
100
AcDbVertex
100
AcDb2dVertex
10
2067.850490321948
20
4092.951509815698
30
0.0
0
SEQEND
5
681
100
AcDbEntity
8
0-C
0
LINE
5
682
100
AcDbEntity
8
0-C
6
CONTINUOUS
62
7
100
AcDbLine
10
1938.442660562207
20
4051.971662247884
30
0.0
11
1938.442660562207
21
3653.931357383512
31
0.0
0
POLYLINE
5
683
100
AcDbEntity
  8
0-1
6
CONTINUOUS
62
4
100
AcDb2dPolyline
66
1
10
0
20
0
70
1
40
8.000
41
8.000
0
VERTEX
5
684
100
AcDbEntity
  8
0-1
6
CONTINUOUS
62
4
100
AcDbVertex
100
AcDb2dVertex
10
1639.331
20
3612.952
30
0.0
42
1.000
0
VERTEX
5
685
100
AcDbEntity
  8
0-1
6
CONTINUOUS
62
4
100
AcDbVertex
100
AcDb2dVertex
10
1647.331
20
3612.952
30
0.0
42
1.000
0
SEQEND
5
686
100
AcDbEntity
  8
0-1
0
POLYLINE
5
687
100
AcDbEntity
  8
0-1
6
CONTINUOUS
62
4
100
AcDb2dPolyline
66
1
10
0
20
0
70
1
40
8.000
41
8.000
0
VERTEX
5
688
100
AcDbEntity
  8
0-1
6
CONTINUOUS
62
4
100
AcDbVertex
100
AcDb2dVertex
10
1639.331
20
4092.952
30
0.0
42
1.000
0
VERTEX
5
689
100
AcDbEntity
  8
0-1
6
CONTINUOUS
62
4
100
AcDbVertex
100
AcDb2dVertex
10
1647.331
20
4092.952
30
0.0
42
1.000
0
SEQEND
5
68a
100
AcDbEntity
  8
0-1
0
LINE
5
68b
100
AcDbEntity
8
0-1
6
CONTINUOUS
62
4
100
AcDbLine
10
1643.330525319636
20
3612.951509815698
30
0.0
11
1820.474577061317
21
3612.951509815698
31
0.0
0
LINE
5
68c
100
AcDbEntity
8
0-1
6
CONTINUOUS
62
4
100
AcDbLine
10
1643.330525319636
20
4092.951509815698
30
0.0
11
1820.474577061317
21
4092.951509815698
31
0.0
0
LINE
5
68d
100
AcDbEntity
8
0-1
6
CONTINUOUS
62
4
100
AcDbLine
10
1643.330525319636
20
3612.951509815698
30
0.0
11
1643.330525319636
21
4092.951509815698
31
0.0
0
TEXT
5
68e
100
AcDbEntity
8
0-1
62
4
370
-3
100
AcDbText
10
1632.586
20
3810.752
30
0.0
40
58.905
41
0.471
50
90.000
1
480
72
1
11
1639.131
21
3855.752
31
0.0
100
AcDbText
73
1
0
POLYLINE
5
68f
100
AcDbEntity
8
0-C
6
CONTINUOUS
62
  7
100
AcDb2dPolyline
66
1
10
0.0
20
0.0
30
0.0
70
0
0
VERTEX
5
690
100
AcDbEntity
8
0-C
6
CONTINUOUS
62
  7
100
AcDbVertex
100
AcDb2dVertex
10
3672.525246763971
20
3648.062161222409
30
0.0
0
VERTEX
5
691
100
AcDbEntity
8
0-C
6
CONTINUOUS
62
  7
100
AcDbVertex
100
AcDb2dVertex
10
3642.954850173036
20
3644.898423350924
30
0.0
0
VERTEX
5
692
100
AcDbEntity
8
0-C
6
CONTINUOUS
62
  7
100
AcDbVertex
100
AcDb2dVertex
10
3613.339043276677
20
3642.197924250926
30
0.0
0
VERTEX
5
693
100
AcDbEntity
8
0-C
6
CONTINUOUS
62
  7
100
AcDbVertex
100
AcDb2dVertex
10
3596.137161283214
20
3640.883746709110
30
0.0
0
VERTEX
5
694
100
AcDbEntity
8
0-C
6
CONTINUOUS
62
  7
100
AcDbVertex
100
AcDb2dVertex
10
3581.678296969408
20
3639.939756570549
30
0.0
0
SEQEND
5
695
100
AcDbEntity
8
0-C
0
POLYLINE
5
696
100
AcDbEntity
8
0-C
6
CONTINUOUS
62
  7
100
AcDb2dPolyline
66
1
10
0.0
20
0.0
30
0.0
70
0
0
VERTEX
5
697
100
AcDbEntity
8
0-C
6
CONTINUOUS
62
  7
100
AcDbVertex
100
AcDb2dVertex
10
3672.525246763971
20
4057.840858408986
30
0.0
0
VERTEX
5
698
100
AcDbEntity
8
0-C
6
CONTINUOUS
62
  7
100
AcDbVertex
100
AcDb2dVertex
10
3642.954850173036
20
4061.004596280471
30
0.0
0
VERTEX
5
699
100
AcDbEntity
8
0-C
6
CONTINUOUS
62
  7
100
AcDbVertex
100
AcDb2dVertex
10
3613.339043276677
20
4063.705095380469
30
0.0
0
VERTEX
5
69a
100
AcDbEntity
8
0-C
6
CONTINUOUS
62
  7
100
AcDbVertex
100
AcDb2dVertex
10
3596.137161283214
20
4065.019272922285
30
0.0
0
VERTEX
5
69b
100
AcDbEntity
8
0-C
6
CONTINUOUS
62
  7
100
AcDbVertex
100
AcDb2dVertex
10
3581.678296969408
20
4065.963263060846
30
0.0
0
SEQEND
5
69c
100
AcDbEntity
8
0-C
0
POLYLINE
5
69d
100
AcDbEntity
8
0-C
6
CONTINUOUS
62
  7
100
AcDb2dPolyline
66
1
10
0.0
20
0.0
30
0.0
70
0
0
VERTEX
5
69e
100
AcDbEntity
8
0-C
6
CONTINUOUS
62
  7
100
AcDbVertex
100
AcDb2dVertex
10
3581.678296969408
20
3639.939756570549
30
0.0
0
VERTEX
5
69f
100
AcDbEntity
8
0-C
6
CONTINUOUS
62
  7
100
AcDbVertex
100
AcDb2dVertex
10
3548.973153207491
20
3638.665372481147
30
0.0
0
VERTEX
5
6a0
100
AcDbEntity
8
0-C
6
CONTINUOUS
62
  7
100
AcDbVertex
100
AcDb2dVertex
10
3523.993949219856
20
3637.847384155267
30
0.0
0
VERTEX
5
6a1
100
AcDbEntity
8
0-C
6
CONTINUOUS
62
  7
100
AcDbVertex
100
AcDb2dVertex
10
3499.004042966750
20
3637.496635776261
30
0.0
0
VERTEX
5
6a2
100
AcDbEntity
8
0-C
6
CONTINUOUS
62
  7
100
AcDbVertex
100
AcDb2dVertex
10
3474.015976170587
20
3637.623971527483
30
0.0
0
VERTEX
5
6a3
100
AcDbEntity
8
0-C
6
CONTINUOUS
62
  7
100
AcDbVertex
100
AcDb2dVertex
10
3449.042290553781
20
3638.240235592286
30
0.0
0
VERTEX
5
6a4
100
AcDbEntity
8
0-C
6
CONTINUOUS
62
  7
100
AcDbVertex
100
AcDb2dVertex
10
3434.569084443216
20
3638.825968875293
30
0.0
0
VERTEX
5
6a5
100
AcDbEntity
8
0-C
6
CONTINUOUS
62
  7
100
AcDbVertex
100
AcDb2dVertex
10
3418.985888140418
20
3639.644187640273
30
0.0
0
VERTEX
5
6a6
100
AcDbEntity
8
0-C
6
CONTINUOUS
62
  7
100
AcDbVertex
100
AcDb2dVertex
10
3392.146009562014
20
3641.464843681379
30
0.0
0
VERTEX
5
6a7
100
AcDbEntity
8
0-C
6
CONTINUOUS
62
  7
100
AcDbVertex
100
AcDb2dVertex
10
3365.335652517336
20
3643.722370968977
30
0.0
0
VERTEX
5
6a8
100
AcDbEntity
8
0-C
6
CONTINUOUS
62
  7
100
AcDbVertex
100
AcDb2dVertex
10
3338.548371256663
20
3646.321382768028
30
0.0
0
VERTEX
5
6a9
100
AcDbEntity
8
0-C
6
CONTINUOUS
62
  7
100
AcDbVertex
100
AcDb2dVertex
10
3311.777720030274
20
3649.166492343488
30
0.0
0
VERTEX
5
6aa
100
AcDbEntity
8
0-C
6
CONTINUOUS
62
  7
100
AcDbVertex
100
AcDb2dVertex
10
3285.017253088443
20
3652.162312960315
30
0.0
0
VERTEX
5
6ab
100
AcDbEntity
8
0-C
6
CONTINUOUS
62
  7
100
AcDbVertex
100
AcDb2dVertex
10
3269.498308740799
20
3653.931357383512
30
0.0
0
SEQEND
5
6ac
100
AcDbEntity
8
0-C
0
LINE
5
6ad
100
AcDbEntity
8
0-C
6
CONTINUOUS
62
7
100
AcDbLine
10
3314.315534365968
20
3625.753924964554
30
0.0
11
3314.315534365968
21
3648.896780568225
31
0.0
0
POLYLINE
5
6ae
100
AcDbEntity
8
0-C
6
CONTINUOUS
62
  7
100
AcDb2dPolyline
66
1
10
0.0
20
0.0
30
0.0
70
0
0
VERTEX
5
6af
100
AcDbEntity
8
0-C
6
CONTINUOUS
62
  7
100
AcDbVertex
100
AcDb2dVertex
10
3314.315534365968
20
3625.753924964554
30
0.0
0
VERTEX
5
6b0
100
AcDbEntity
8
0-C
6
CONTINUOUS
62
  7
100
AcDbVertex
100
AcDb2dVertex
10
3318.324988241084
20
3624.867524147167
30
0.0
0
VERTEX
5
6b1
100
AcDbEntity
8
0-C
6
CONTINUOUS
62
  7
100
AcDbVertex
100
AcDb2dVertex
10
3325.240022473282
20
3623.353745201548
30
0.0
0
VERTEX
5
6b2
100
AcDbEntity
8
0-C
6
CONTINUOUS
62
  7
100
AcDbVertex
100
AcDb2dVertex
10
3332.161119825972
20
3621.880239382986
30
0.0
0
VERTEX
5
6b3
100
AcDbEntity
8
0-C
6
CONTINUOUS
62
  7
100
AcDbVertex
100
AcDb2dVertex
10
3339.092117717187
20
3620.472496012403
30
0.0
0
VERTEX
5
6b4
100
AcDbEntity
8
0-C
6
CONTINUOUS
62
  7
100
AcDbVertex
100
AcDb2dVertex
10
3346.036853564960
20
3619.156004410721
30
0.0
0
VERTEX
5
6b5
100
AcDbEntity
8
0-C
6
CONTINUOUS
62
  7
100
AcDbVertex
100
AcDb2dVertex
10
3352.999164787325
20
3617.956253898860
30
0.0
0
VERTEX
5
6b6
100
AcDbEntity
8
0-C
6
CONTINUOUS
62
  7
100
AcDbVertex
100
AcDb2dVertex
10
3357.046870475184
20
3617.323933487226
30
0.0
0
VERTEX
5
6b7
100
AcDbEntity
8
0-C
6
CONTINUOUS
62
  7
100
AcDbVertex
100
AcDb2dVertex
10
3360.965474921210
20
3616.761528429383
30
0.0
0
VERTEX
5
6b8
100
AcDbEntity
8
0-C
6
CONTINUOUS
62
  7
100
AcDbVertex
100
AcDb2dVertex
10
3367.737088274449
20
3615.894148083830
30
0.0
0
VERTEX
5
6b9
100
AcDbEntity
8
0-C
6
CONTINUOUS
62
  7
100
AcDbVertex
100
AcDb2dVertex
10
3374.525112290233
20
3615.135772449405
30
0.0
0
VERTEX
5
6ba
100
AcDbEntity
8
0-C
6
CONTINUOUS
62
  7
100
AcDbVertex
100
AcDb2dVertex
10
3381.325963854470
20
3614.462601370839
30
0.0
0
VERTEX
5
6bb
100
AcDbEntity
8
0-C
6
CONTINUOUS
62
  7
100
AcDbVertex
100
AcDb2dVertex
10
3388.136059853065
20
3613.850834692864
30
0.0
0
VERTEX
5
6bc
100
AcDbEntity
8
0-C
6
CONTINUOUS
62
  7
100
AcDbVertex
100
AcDb2dVertex
10
3394.951817171927
20
3613.276672260212
30
0.0
0
VERTEX
5
6bd
100
AcDbEntity
8
0-C
6
CONTINUOUS
62
  7
100
AcDbVertex
100
AcDb2dVertex
10
3398.906138500540
20
3612.951509815698
30
0.0
0
SEQEND
5
6be
100
AcDbEntity
8
0-C
0
POLYLINE
5
6bf
100
AcDbEntity
8
0-C
6
CONTINUOUS
62
  7
100
AcDb2dPolyline
66
1
10
0.0
20
0.0
30
0.0
70
0
0
VERTEX
5
6c0
100
AcDbEntity
8
0-C
6
CONTINUOUS
62
  7
100
AcDbVertex
100
AcDb2dVertex
10
3581.678296969408
20
4065.963263060846
30
0.0
0
VERTEX
5
6c1
100
AcDbEntity
8
0-C
6
CONTINUOUS
62
  7
100
AcDbVertex
100
AcDb2dVertex
10
3548.973153207491
20
4067.237647150248
30
0.0
0
VERTEX
5
6c2
100
AcDbEntity
8
0-C
6
CONTINUOUS
62
  7
100
AcDbVertex
100
AcDb2dVertex
10
3523.993949219856
20
4068.055635476128
30
0.0
0
VERTEX
5
6c3
100
AcDbEntity
8
0-C
6
CONTINUOUS
62
  7
100
AcDbVertex
100
AcDb2dVertex
10
3499.004042966750
20
4068.406383855134
30
0.0
0
VERTEX
5
6c4
100
AcDbEntity
8
0-C
6
CONTINUOUS
62
  7
100
AcDbVertex
100
AcDb2dVertex
10
3474.015976170587
20
4068.279048103912
30
0.0
0
VERTEX
5
6c5
100
AcDbEntity
8
0-C
6
CONTINUOUS
62
  7
100
AcDbVertex
100
AcDb2dVertex
10
3449.042290553781
20
4067.662784039109
30
0.0
0
VERTEX
5
6c6
100
AcDbEntity
8
0-C
6
CONTINUOUS
62
  7
100
AcDbVertex
100
AcDb2dVertex
10
3434.569084443216
20
4067.077050756102
30
0.0
0
VERTEX
5
6c7
100
AcDbEntity
8
0-C
6
CONTINUOUS
62
  7
100
AcDbVertex
100
AcDb2dVertex
10
3418.985888140418
20
4066.258831991122
30
0.0
0
VERTEX
5
6c8
100
AcDbEntity
8
0-C
6
CONTINUOUS
62
  7
100
AcDbVertex
100
AcDb2dVertex
10
3392.146009562014
20
4064.438175950017
30
0.0
0
VERTEX
5
6c9
100
AcDbEntity
8
0-C
6
CONTINUOUS
62
  7
100
AcDbVertex
100
AcDb2dVertex
10
3365.335652517336
20
4062.180648662418
30
0.0
0
VERTEX
5
6ca
100
AcDbEntity
8
0-C
6
CONTINUOUS
62
  7
100
AcDbVertex
100
AcDb2dVertex
10
3338.548371256663
20
4059.581636863367
30
0.0
0
VERTEX
5
6cb
100
AcDbEntity
8
0-C
6
CONTINUOUS
62
  7
100
AcDbVertex
100
AcDb2dVertex
10
3311.777720030274
20
4056.736527287907
30
0.0
0
VERTEX
5
6cc
100
AcDbEntity
8
0-C
6
CONTINUOUS
62
  7
100
AcDbVertex
100
AcDb2dVertex
10
3285.017253088443
20
4053.740706671080
30
0.0
0
VERTEX
5
6cd
100
AcDbEntity
8
0-C
6
CONTINUOUS
62
  7
100
AcDbVertex
100
AcDb2dVertex
10
3269.498308740799
20
4051.971662247884
30
0.0
0
SEQEND
5
6ce
100
AcDbEntity
8
0-C
0
LINE
5
6cf
100
AcDbEntity
8
0-C
6
CONTINUOUS
62
7
100
AcDbLine
10
3314.315534365968
20
4080.149094666841
30
0.0
11
3314.315534365968
21
4057.006239063171
31
0.0
0
POLYLINE
5
6d0
100
AcDbEntity
8
0-C
6
CONTINUOUS
62
  7
100
AcDb2dPolyline
66
1
10
0.0
20
0.0
30
0.0
70
0
0
VERTEX
5
6d1
100
AcDbEntity
8
0-C
6
CONTINUOUS
62
  7
100
AcDbVertex
100
AcDb2dVertex
10
3314.315534365968
20
4080.149094666841
30
0.0
0
VERTEX
5
6d2
100
AcDbEntity
8
0-C
6
CONTINUOUS
62
  7
100
AcDbVertex
100
AcDb2dVertex
10
3318.324988241084
20
4081.035495484229
30
0.0
0
VERTEX
5
6d3
100
AcDbEntity
8
0-C
6
CONTINUOUS
62
  7
100
AcDbVertex
100
AcDb2dVertex
10
3325.240022473282
20
4082.549274429847
30
0.0
0
VERTEX
5
6d4
100
AcDbEntity
8
0-C
6
CONTINUOUS
62
  7
100
AcDbVertex
100
AcDb2dVertex
10
3332.161119825972
20
4084.022780248409
30
0.0
0
VERTEX
5
6d5
100
AcDbEntity
8
0-C
6
CONTINUOUS
62
  7
100
AcDbVertex
100
AcDb2dVertex
10
3339.092117717187
20
4085.430523618992
30
0.0
0
VERTEX
5
6d6
100
AcDbEntity
8
0-C
6
CONTINUOUS
62
  7
100
AcDbVertex
100
AcDb2dVertex
10
3346.036853564960
20
4086.747015220674
30
0.0
0
VERTEX
5
6d7
100
AcDbEntity
8
0-C
6
CONTINUOUS
62
  7
100
AcDbVertex
100
AcDb2dVertex
10
3352.999164787325
20
4087.946765732535
30
0.0
0
VERTEX
5
6d8
100
AcDbEntity
8
0-C
6
CONTINUOUS
62
  7
100
AcDbVertex
100
AcDb2dVertex
10
3357.046870475184
20
4088.579086144169
30
0.0
0
VERTEX
5
6d9
100
AcDbEntity
8
0-C
6
CONTINUOUS
62
  7
100
AcDbVertex
100
AcDb2dVertex
10
3360.965474921210
20
4089.141491202012
30
0.0
0
VERTEX
5
6da
100
AcDbEntity
8
0-C
6
CONTINUOUS
62
  7
100
AcDbVertex
100
AcDb2dVertex
10
3367.737088274449
20
4090.008871547565
30
0.0
0
VERTEX
5
6db
100
AcDbEntity
8
0-C
6
CONTINUOUS
62
  7
100
AcDbVertex
100
AcDb2dVertex
10
3374.525112290233
20
4090.767247181990
30
0.0
0
VERTEX
5
6dc
100
AcDbEntity
8
0-C
6
CONTINUOUS
62
  7
100
AcDbVertex
100
AcDb2dVertex
10
3381.325963854470
20
4091.440418260556
30
0.0
0
VERTEX
5
6dd
100
AcDbEntity
8
0-C
6
CONTINUOUS
62
  7
100
AcDbVertex
100
AcDb2dVertex
10
3388.136059853065
20
4092.052184938531
30
0.0
0
VERTEX
5
6de
100
AcDbEntity
8
0-C
6
CONTINUOUS
62
  7
100
AcDbVertex
100
AcDb2dVertex
10
3394.951817171927
20
4092.626347371183
30
0.0
0
VERTEX
5
6df
100
AcDbEntity
8
0-C
6
CONTINUOUS
62
  7
100
AcDbVertex
100
AcDb2dVertex
10
3398.906138500540
20
4092.951509815698
30
0.0
0
SEQEND
5
6e0
100
AcDbEntity
8
0-C
0
LINE
5
6e1
100
AcDbEntity
8
0-C
6
CONTINUOUS
62
7
100
AcDbLine
10
3269.498308740799
20
4051.971662247884
30
0.0
11
3269.498308740799
21
3653.931357383512
31
0.0
0
POLYLINE
5
6e2
100
AcDbEntity
  8
0-1
6
CONTINUOUS
62
4
100
AcDb2dPolyline
66
1
10
0
20
0
70
1
40
8.000
41
8.000
0
VERTEX
5
6e3
100
AcDbEntity
  8
0-1
6
CONTINUOUS
62
4
100
AcDbVertex
100
AcDb2dVertex
10
2970.386
20
3612.952
30
0.0
42
1.000
0
VERTEX
5
6e4
100
AcDbEntity
  8
0-1
6
CONTINUOUS
62
4
100
AcDbVertex
100
AcDb2dVertex
10
2978.386
20
3612.952
30
0.0
42
1.000
0
SEQEND
5
6e5
100
AcDbEntity
  8
0-1
0
POLYLINE
5
6e6
100
AcDbEntity
  8
0-1
6
CONTINUOUS
62
4
100
AcDb2dPolyline
66
1
10
0
20
0
70
1
40
8.000
41
8.000
0
VERTEX
5
6e7
100
AcDbEntity
  8
0-1
6
CONTINUOUS
62
4
100
AcDbVertex
100
AcDb2dVertex
10
2970.386
20
4092.952
30
0.0
42
1.000
0
VERTEX
5
6e8
100
AcDbEntity
  8
0-1
6
CONTINUOUS
62
4
100
AcDbVertex
100
AcDb2dVertex
10
2978.386
20
4092.952
30
0.0
42
1.000
0
SEQEND
5
6e9
100
AcDbEntity
  8
0-1
0
LINE
5
6ea
100
AcDbEntity
8
0-1
6
CONTINUOUS
62
4
100
AcDbLine
10
2974.386173498228
20
3612.951509815698
30
0.0
11
3151.530225239909
21
3612.951509815698
31
0.0
0
LINE
5
6eb
100
AcDbEntity
8
0-1
6
CONTINUOUS
62
4
100
AcDbLine
10
2974.386173498228
20
4092.951509815698
30
0.0
11
3151.530225239909
21
4092.951509815698
31
0.0
0
LINE
5
6ec
100
AcDbEntity
8
0-1
6
CONTINUOUS
62
4
100
AcDbLine
10
2974.386173498228
20
3612.951509815698
30
0.0
11
2974.386173498228
21
4092.951509815698
31
0.0
0
TEXT
5
6ed
100
AcDbEntity
8
0-1
62
4
370
-3
100
AcDbText
10
2963.641
20
3810.752
30
0.0
40
58.905
41
0.471
50
90.000
1
480
72
1
11
2970.186
21
3855.752
31
0.0
100
AcDbText
73
1
0
ARC
5
6ee
100
AcDbEntity
8
0-C
6
CONTINUOUS
62
7
100
AcDbCircle
10
3809.498308740799
20
3632.951509815698
30
0.0
40
20.000000000000
100
AcDbArc
50
270.000000000000
51
360.000000000000
0
POLYLINE
5
6ef
100
AcDbEntity
8
0-C
6
CONTINUOUS
62
  7
100
AcDb2dPolyline
66
1
10
0.0
20
0.0
30
0.0
70
0
0
VERTEX
5
6f0
100
AcDbEntity
8
0-C
6
CONTINUOUS
62
  7
100
AcDbVertex
100
AcDb2dVertex
10
3788.166172864478
20
3661.643759732938
30
0.0
0
VERTEX
5
6f1
100
AcDbEntity
8
0-C
6
CONTINUOUS
62
  7
100
AcDbVertex
100
AcDb2dVertex
10
3771.063123842718
20
3659.321369100092
30
0.0
0
VERTEX
5
6f2
100
AcDbEntity
8
0-C
6
CONTINUOUS
62
  7
100
AcDbVertex
100
AcDb2dVertex
10
3741.569468684964
20
3655.374777933562
30
0.0
0
VERTEX
5
6f3
100
AcDbEntity
8
0-C
6
CONTINUOUS
62
  7
100
AcDbVertex
100
AcDb2dVertex
10
3712.060147963331
20
3651.587994028811
30
0.0
0
VERTEX
5
6f4
100
AcDbEntity
8
0-C
6
CONTINUOUS
62
  7
100
AcDbVertex
100
AcDb2dVertex
10
3672.525246763971
20
3648.062161222409
30
0.0
0
SEQEND
5
6f5
100
AcDbEntity
8
0-C
0
ARC
5
6f6
100
AcDbEntity
8
0-C
6
CONTINUOUS
62
7
100
AcDbCircle
10
3809.498308740799
20
4072.951509815698
30
0.0
40
20.000000000000
100
AcDbArc
50
360.000000000000
51
450.000000000000
0
POLYLINE
5
6f7
100
AcDbEntity
8
0-C
6
CONTINUOUS
62
  7
100
AcDb2dPolyline
66
1
10
0.0
20
0.0
30
0.0
70
0
0
VERTEX
5
6f8
100
AcDbEntity
8
0-C
6
CONTINUOUS
62
  7
100
AcDbVertex
100
AcDb2dVertex
10
3788.166172864478
20
4044.259259898457
30
0.0
0
VERTEX
5
6f9
100
AcDbEntity
8
0-C
6
CONTINUOUS
62
  7
100
AcDbVertex
100
AcDb2dVertex
10
3771.063123842718
20
4046.581650531303
30
0.0
0
VERTEX
5
6fa
100
AcDbEntity
8
0-C
6
CONTINUOUS
62
  7
100
AcDbVertex
100
AcDb2dVertex
10
3741.569468684964
20
4050.528241697833
30
0.0
0
VERTEX
5
6fb
100
AcDbEntity
8
0-C
6
CONTINUOUS
62
  7
100
AcDbVertex
100
AcDb2dVertex
10
3712.060147963331
20
4054.315025602584
30
0.0
0
VERTEX
5
6fc
100
AcDbEntity
8
0-C
6
CONTINUOUS
62
  7
100
AcDbVertex
100
AcDb2dVertex
10
3672.525246763971
20
4057.840858408986
30
0.0
0
SEQEND
5
6fd
100
AcDbEntity
8
0-C
0
LINE
5
6fe
100
AcDbEntity
8
0-C
6
CONTINUOUS
62
7
100
AcDbLine
10
3829.498308740799
20
3632.951509815698
30
0.0
11
3829.498308740799
21
4072.951509815698
31
0.0
0
LINE
5
6ff
100
AcDbEntity
8
0-C
6
CONTINUOUS
62
7
100
AcDbLine
10
3788.166172864478
20
4044.259259898457
30
0.0
11
3788.166172864478
21
3661.643759732938
31
0.0
0
LINE
5
700
100
AcDbEntity
8
0-C
6
CONTINUOUS
62
7
100
AcDbLine
10
3809.498308740799
20
3612.951509815698
30
0.0
11
3398.906138500540
21
3612.951509815698
31
0.0
0
LINE
5
701
100
AcDbEntity
8
0-C
6
CONTINUOUS
62
7
100
AcDbLine
10
3809.498308740799
20
4092.951509815698
30
0.0
11
3398.906138500540
21
4092.951509815698
31
0.0
0
POLYLINE
5
702
100
AcDbEntity
8
0-C
6
CONTINUOUS
62
  7
100
AcDb2dPolyline
66
1
10
0.0
20
0.0
30
0.0
70
0
0
VERTEX
5
703
100
AcDbEntity
8
0-C
6
CONTINUOUS
62
  7
100
AcDbVertex
100
AcDb2dVertex
10
6081.097184497601
20
3589.644187640273
30
0.0
0
VERTEX
5
704
100
AcDbEntity
8
0-C
6
CONTINUOUS
62
  7
100
AcDbVertex
100
AcDb2dVertex
10
6054.257305919197
20
3591.464843681379
30
0.0
0
VERTEX
5
705
100
AcDbEntity
8
0-C
6
CONTINUOUS
62
  7
100
AcDbVertex
100
AcDb2dVertex
10
6027.446948874520
20
3593.722370968977
30
0.0
0
VERTEX
5
706
100
AcDbEntity
8
0-C
6
CONTINUOUS
62
  7
100
AcDbVertex
100
AcDb2dVertex
10
6000.659667613847
20
3596.321382768028
30
0.0
0
VERTEX
5
707
100
AcDbEntity
8
0-C
6
CONTINUOUS
62
  7
100
AcDbVertex
100
AcDb2dVertex
10
5973.889016387458
20
3599.166492343488
30
0.0
0
VERTEX
5
708
100
AcDbEntity
8
0-C
6
CONTINUOUS
62
  7
100
AcDbVertex
100
AcDb2dVertex
10
5947.128549445628
20
3602.162312960315
30
0.0
0
VERTEX
5
709
100
AcDbEntity
8
0-C
6
CONTINUOUS
62
  7
100
AcDbVertex
100
AcDb2dVertex
10
5931.609605097983
20
3603.931357383512
30
0.0
0
SEQEND
5
70a
100
AcDbEntity
8
0-C
0
LINE
5
70b
100
AcDbEntity
8
0-C
6
CONTINUOUS
62
7
100
AcDbLine
10
5976.426830723152
20
3575.753924964554
30
0.0
11
5976.426830723152
21
3598.896780568225
31
0.0
0
POLYLINE
5
70c
100
AcDbEntity
8
0-C
6
CONTINUOUS
62
  7
100
AcDb2dPolyline
66
1
10
0.0
20
0.0
30
0.0
70
0
0
VERTEX
5
70d
100
AcDbEntity
8
0-C
6
CONTINUOUS
62
  7
100
AcDbVertex
100
AcDb2dVertex
10
5976.426830723152
20
3575.753924964554
30
0.0
0
VERTEX
5
70e
100
AcDbEntity
8
0-C
6
CONTINUOUS
62
  7
100
AcDbVertex
100
AcDb2dVertex
10
5980.436284598268
20
3574.867524147167
30
0.0
0
VERTEX
5
70f
100
AcDbEntity
8
0-C
6
CONTINUOUS
62
  7
100
AcDbVertex
100
AcDb2dVertex
10
5987.351318830466
20
3573.353745201548
30
0.0
0
VERTEX
5
710
100
AcDbEntity
8
0-C
6
CONTINUOUS
62
  7
100
AcDbVertex
100
AcDb2dVertex
10
5994.272416183156
20
3571.880239382986
30
0.0
0
VERTEX
5
711
100
AcDbEntity
8
0-C
6
CONTINUOUS
62
  7
100
AcDbVertex
100
AcDb2dVertex
10
6001.203414074371
20
3570.472496012403
30
0.0
0
VERTEX
5
712
100
AcDbEntity
8
0-C
6
CONTINUOUS
62
  7
100
AcDbVertex
100
AcDb2dVertex
10
6008.148149922145
20
3569.156004410721
30
0.0
0
VERTEX
5
713
100
AcDbEntity
8
0-C
6
CONTINUOUS
62
  7
100
AcDbVertex
100
AcDb2dVertex
10
6015.110461144509
20
3567.956253898860
30
0.0
0
VERTEX
5
714
100
AcDbEntity
8
0-C
6
CONTINUOUS
62
  7
100
AcDbVertex
100
AcDb2dVertex
10
6019.158166832368
20
3567.323933487226
30
0.0
0
VERTEX
5
715
100
AcDbEntity
8
0-C
6
CONTINUOUS
62
  7
100
AcDbVertex
100
AcDb2dVertex
10
6023.076771278394
20
3566.761528429383
30
0.0
0
VERTEX
5
716
100
AcDbEntity
8
0-C
6
CONTINUOUS
62
  7
100
AcDbVertex
100
AcDb2dVertex
10
6029.848384631633
20
3565.894148083830
30
0.0
0
VERTEX
5
717
100
AcDbEntity
8
0-C
6
CONTINUOUS
62
  7
100
AcDbVertex
100
AcDb2dVertex
10
6036.636408647416
20
3565.135772449405
30
0.0
0
VERTEX
5
718
100
AcDbEntity
8
0-C
6
CONTINUOUS
62
  7
100
AcDbVertex
100
AcDb2dVertex
10
6043.437260211654
20
3564.462601370839
30
0.0
0
VERTEX
5
719
100
AcDbEntity
8
0-C
6
CONTINUOUS
62
  7
100
AcDbVertex
100
AcDb2dVertex
10
6050.247356210249
20
3563.850834692864
30
0.0
0
VERTEX
5
71a
100
AcDbEntity
8
0-C
6
CONTINUOUS
62
  7
100
AcDbVertex
100
AcDb2dVertex
10
6057.063113529111
20
3563.276672260212
30
0.0
0
VERTEX
5
71b
100
AcDbEntity
8
0-C
6
CONTINUOUS
62
  7
100
AcDbVertex
100
AcDb2dVertex
10
6061.017434857724
20
3562.951509815698
30
0.0
0
SEQEND
5
71c
100
AcDbEntity
8
0-C
0
POLYLINE
5
71d
100
AcDbEntity
  8
0-1
6
CONTINUOUS
62
4
100
AcDb2dPolyline
66
1
10
0
20
0
70
1
40
8.000
41
8.000
0
VERTEX
5
71e
100
AcDbEntity
  8
0-1
6
CONTINUOUS
62
4
100
AcDbVertex
100
AcDb2dVertex
10
5632.497
20
3562.952
30
0.0
42
1.000
0
VERTEX
5
71f
100
AcDbEntity
  8
0-1
6
CONTINUOUS
62
4
100
AcDbVertex
100
AcDb2dVertex
10
5640.497
20
3562.952
30
0.0
42
1.000
0
SEQEND
5
720
100
AcDbEntity
  8
0-1
0
LINE
5
721
100
AcDbEntity
8
0-1
6
CONTINUOUS
62
4
100
AcDbLine
10
5636.497469855412
20
3562.951509815698
30
0.0
11
5813.641521597093
21
3562.951509815698
31
0.0
0
ARC
5
722
100
AcDbEntity
8
0-C
6
CONTINUOUS
62
7
100
AcDbCircle
10
6641.609605097983
20
3582.951509815698
30
0.0
40
20.000000000000
100
AcDbArc
50
270.000000000000
51
360.000000000000
0
POLYLINE
5
723
100
AcDbEntity
8
0-C
6
CONTINUOUS
62
  7
100
AcDb2dPolyline
66
1
10
0.0
20
0.0
30
0.0
70
0
0
VERTEX
5
724
100
AcDbEntity
8
0-C
6
CONTINUOUS
62
  7
100
AcDbVertex
100
AcDb2dVertex
10
6620.277469221662
20
3611.643759732938
30
0.0
0
VERTEX
5
725
100
AcDbEntity
8
0-C
6
CONTINUOUS
62
  7
100
AcDbVertex
100
AcDb2dVertex
10
6603.174420199903
20
3609.321369100092
30
0.0
0
VERTEX
5
726
100
AcDbEntity
8
0-C
6
CONTINUOUS
62
  7
100
AcDbVertex
100
AcDb2dVertex
10
6573.680765042149
20
3605.374777933562
30
0.0
0
VERTEX
5
727
100
AcDbEntity
8
0-C
6
CONTINUOUS
62
  7
100
AcDbVertex
100
AcDb2dVertex
10
6544.171444320515
20
3601.587994028811
30
0.0
0
VERTEX
5
728
100
AcDbEntity
8
0-C
6
CONTINUOUS
62
  7
100
AcDbVertex
100
AcDb2dVertex
10
6504.636543121154
20
3598.062161222409
30
0.0
0
SEQEND
5
729
100
AcDbEntity
8
0-C
0
LINE
5
72a
100
AcDbEntity
8
0-C
6
CONTINUOUS
62
7
100
AcDbLine
10
6641.609605097983
20
3562.951509815698
30
0.0
11
6061.017434857724
21
3562.951509815698
31
0.0
0
POLYLINE
5
72b
100
AcDbEntity
8
0-C
6
CONTINUOUS
62
  7
100
AcDb2dPolyline
66
1
10
0.0
20
0.0
30
0.0
70
0
0
VERTEX
5
72c
100
AcDbEntity
8
0-C
6
CONTINUOUS
62
  7
100
AcDbVertex
100
AcDb2dVertex
10
6504.636543121154
20
3598.062161222409
30
0.0
0
VERTEX
5
72d
100
AcDbEntity
8
0-C
6
CONTINUOUS
62
  7
100
AcDbVertex
100
AcDb2dVertex
10
6475.066146530220
20
3594.898423350924
30
0.0
0
VERTEX
5
72e
100
AcDbEntity
8
0-C
6
CONTINUOUS
62
  7
100
AcDbVertex
100
AcDb2dVertex
10
6445.450339633861
20
3592.197924250926
30
0.0
0
VERTEX
5
72f
100
AcDbEntity
8
0-C
6
CONTINUOUS
62
  7
100
AcDbVertex
100
AcDb2dVertex
10
6428.248457640397
20
3590.883746709110
30
0.0
0
VERTEX
5
730
100
AcDbEntity
8
0-C
6
CONTINUOUS
62
  7
100
AcDbVertex
100
AcDb2dVertex
10
6413.789593326592
20
3589.939756570549
30
0.0
0
VERTEX
5
731
100
AcDbEntity
8
0-C
6
CONTINUOUS
62
  7
100
AcDbVertex
100
AcDb2dVertex
10
6381.084449564674
20
3588.665372481147
30
0.0
0
VERTEX
5
732
100
AcDbEntity
8
0-C
6
CONTINUOUS
62
  7
100
AcDbVertex
100
AcDb2dVertex
10
6356.105245577041
20
3587.847384155267
30
0.0
0
VERTEX
5
733
100
AcDbEntity
8
0-C
6
CONTINUOUS
62
  7
100
AcDbVertex
100
AcDb2dVertex
10
6331.115339323934
20
3587.496635776261
30
0.0
0
VERTEX
5
734
100
AcDbEntity
8
0-C
6
CONTINUOUS
62
  7
100
AcDbVertex
100
AcDb2dVertex
10
6306.127272527770
20
3587.623971527483
30
0.0
0
VERTEX
5
735
100
AcDbEntity
8
0-C
6
CONTINUOUS
62
  7
100
AcDbVertex
100
AcDb2dVertex
10
6281.153586910965
20
3588.240235592286
30
0.0
0
VERTEX
5
736
100
AcDbEntity
8
0-C
6
CONTINUOUS
62
  7
100
AcDbVertex
100
AcDb2dVertex
10
6266.680380800400
20
3588.825968875293
30
0.0
0
VERTEX
5
737
100
AcDbEntity
8
0-C
6
CONTINUOUS
62
  7
100
AcDbVertex
100
AcDb2dVertex
10
6081.097184497601
20
3589.644187640273
30
0.0
0
SEQEND
5
738
100
AcDbEntity
8
0-C
0
POLYLINE
5
739
100
AcDbEntity
8
0-C
6
CONTINUOUS
62
  7
100
AcDb2dPolyline
66
1
10
0.0
20
0.0
30
0.0
70
0
0
VERTEX
5
73a
100
AcDbEntity
8
0-C
6
CONTINUOUS
62
  7
100
AcDbVertex
100
AcDb2dVertex
10
6081.097184497601
20
4116.258831991122
30
0.0
0
VERTEX
5
73b
100
AcDbEntity
8
0-C
6
CONTINUOUS
62
  7
100
AcDbVertex
100
AcDb2dVertex
10
6054.257305919197
20
4114.438175950017
30
0.0
0
VERTEX
5
73c
100
AcDbEntity
8
0-C
6
CONTINUOUS
62
  7
100
AcDbVertex
100
AcDb2dVertex
10
6027.446948874520
20
4112.180648662417
30
0.0
0
VERTEX
5
73d
100
AcDbEntity
8
0-C
6
CONTINUOUS
62
  7
100
AcDbVertex
100
AcDb2dVertex
10
6000.659667613847
20
4109.581636863367
30
0.0
0
VERTEX
5
73e
100
AcDbEntity
8
0-C
6
CONTINUOUS
62
  7
100
AcDbVertex
100
AcDb2dVertex
10
5973.889016387458
20
4106.736527287907
30
0.0
0
VERTEX
5
73f
100
AcDbEntity
8
0-C
6
CONTINUOUS
62
  7
100
AcDbVertex
100
AcDb2dVertex
10
5947.128549445628
20
4103.740706671080
30
0.0
0
VERTEX
5
740
100
AcDbEntity
8
0-C
6
CONTINUOUS
62
  7
100
AcDbVertex
100
AcDb2dVertex
10
5931.609605097983
20
4101.971662247884
30
0.0
0
SEQEND
5
741
100
AcDbEntity
8
0-C
0
LINE
5
742
100
AcDbEntity
8
0-C
6
CONTINUOUS
62
7
100
AcDbLine
10
5976.426830723152
20
4130.149094666840
30
0.0
11
5976.426830723152
21
4107.006239063170
31
0.0
0
POLYLINE
5
743
100
AcDbEntity
8
0-C
6
CONTINUOUS
62
  7
100
AcDb2dPolyline
66
1
10
0.0
20
0.0
30
0.0
70
0
0
VERTEX
5
744
100
AcDbEntity
8
0-C
6
CONTINUOUS
62
  7
100
AcDbVertex
100
AcDb2dVertex
10
5976.426830723152
20
4130.149094666840
30
0.0
0
VERTEX
5
745
100
AcDbEntity
8
0-C
6
CONTINUOUS
62
  7
100
AcDbVertex
100
AcDb2dVertex
10
5980.436284598268
20
4131.035495484229
30
0.0
0
VERTEX
5
746
100
AcDbEntity
8
0-C
6
CONTINUOUS
62
  7
100
AcDbVertex
100
AcDb2dVertex
10
5987.351318830466
20
4132.549274429847
30
0.0
0
VERTEX
5
747
100
AcDbEntity
8
0-C
6
CONTINUOUS
62
  7
100
AcDbVertex
100
AcDb2dVertex
10
5994.272416183156
20
4134.022780248409
30
0.0
0
VERTEX
5
748
100
AcDbEntity
8
0-C
6
CONTINUOUS
62
  7
100
AcDbVertex
100
AcDb2dVertex
10
6001.203414074371
20
4135.430523618992
30
0.0
0
VERTEX
5
749
100
AcDbEntity
8
0-C
6
CONTINUOUS
62
  7
100
AcDbVertex
100
AcDb2dVertex
10
6008.148149922145
20
4136.747015220674
30
0.0
0
VERTEX
5
74a
100
AcDbEntity
8
0-C
6
CONTINUOUS
62
  7
100
AcDbVertex
100
AcDb2dVertex
10
6015.110461144509
20
4137.946765732535
30
0.0
0
VERTEX
5
74b
100
AcDbEntity
8
0-C
6
CONTINUOUS
62
  7
100
AcDbVertex
100
AcDb2dVertex
10
6019.158166832368
20
4138.579086144169
30
0.0
0
VERTEX
5
74c
100
AcDbEntity
8
0-C
6
CONTINUOUS
62
  7
100
AcDbVertex
100
AcDb2dVertex
10
6023.076771278394
20
4139.141491202012
30
0.0
0
VERTEX
5
74d
100
AcDbEntity
8
0-C
6
CONTINUOUS
62
  7
100
AcDbVertex
100
AcDb2dVertex
10
6029.848384631633
20
4140.008871547565
30
0.0
0
VERTEX
5
74e
100
AcDbEntity
8
0-C
6
CONTINUOUS
62
  7
100
AcDbVertex
100
AcDb2dVertex
10
6036.636408647416
20
4140.767247181990
30
0.0
0
VERTEX
5
74f
100
AcDbEntity
8
0-C
6
CONTINUOUS
62
  7
100
AcDbVertex
100
AcDb2dVertex
10
6043.437260211654
20
4141.440418260556
30
0.0
0
VERTEX
5
750
100
AcDbEntity
8
0-C
6
CONTINUOUS
62
  7
100
AcDbVertex
100
AcDb2dVertex
10
6050.247356210249
20
4142.052184938531
30
0.0
0
VERTEX
5
751
100
AcDbEntity
8
0-C
6
CONTINUOUS
62
  7
100
AcDbVertex
100
AcDb2dVertex
10
6057.063113529111
20
4142.626347371183
30
0.0
0
VERTEX
5
752
100
AcDbEntity
8
0-C
6
CONTINUOUS
62
  7
100
AcDbVertex
100
AcDb2dVertex
10
6061.017434857724
20
4142.951509815697
30
0.0
0
SEQEND
5
753
100
AcDbEntity
8
0-C
0
LINE
5
754
100
AcDbEntity
8
0-C
6
CONTINUOUS
62
7
100
AcDbLine
10
5931.609605097983
20
4101.971662247884
30
0.0
11
5931.609605097983
21
3603.931357383512
31
0.0
0
POLYLINE
5
755
100
AcDbEntity
  8
0-1
6
CONTINUOUS
62
4
100
AcDb2dPolyline
66
1
10
0
20
0
70
1
40
8.000
41
8.000
0
VERTEX
5
756
100
AcDbEntity
  8
0-1
6
CONTINUOUS
62
4
100
AcDbVertex
100
AcDb2dVertex
10
5632.497
20
4142.952
30
0.0
42
1.000
0
VERTEX
5
757
100
AcDbEntity
  8
0-1
6
CONTINUOUS
62
4
100
AcDbVertex
100
AcDb2dVertex
10
5640.497
20
4142.952
30
0.0
42
1.000
0
SEQEND
5
758
100
AcDbEntity
  8
0-1
0
LINE
5
759
100
AcDbEntity
8
0-1
6
CONTINUOUS
62
4
100
AcDbLine
10
5636.497469855412
20
4142.951509815697
30
0.0
11
5813.641521597093
21
4142.951509815697
31
0.0
0
LINE
5
75a
100
AcDbEntity
8
0-1
6
CONTINUOUS
62
4
100
AcDbLine
10
5636.497469855412
20
3562.951509815698
30
0.0
11
5636.497469855412
21
4142.951509815697
31
0.0
0
TEXT
5
75b
100
AcDbEntity
8
0-1
62
4
370
-3
100
AcDbText
10
5625.752
20
3810.752
30
0.0
40
58.905
41
0.457
50
90.000
1
580
72
1
11
5632.297
21
3855.752
31
0.0
100
AcDbText
73
1
0
ARC
5
75c
100
AcDbEntity
8
0-C
6
CONTINUOUS
62
7
100
AcDbCircle
10
6641.609605097983
20
4122.951509815697
30
0.0
40
20.000000000000
100
AcDbArc
50
360.000000000000
51
450.000000000000
0
POLYLINE
5
75d
100
AcDbEntity
8
0-C
6
CONTINUOUS
62
  7
100
AcDb2dPolyline
66
1
10
0.0
20
0.0
30
0.0
70
0
0
VERTEX
5
75e
100
AcDbEntity
8
0-C
6
CONTINUOUS
62
  7
100
AcDbVertex
100
AcDb2dVertex
10
6620.277469221662
20
4094.259259898457
30
0.0
0
VERTEX
5
75f
100
AcDbEntity
8
0-C
6
CONTINUOUS
62
  7
100
AcDbVertex
100
AcDb2dVertex
10
6603.174420199903
20
4096.581650531303
30
0.0
0
VERTEX
5
760
100
AcDbEntity
8
0-C
6
CONTINUOUS
62
  7
100
AcDbVertex
100
AcDb2dVertex
10
6573.680765042149
20
4100.528241697833
30
0.0
0
VERTEX
5
761
100
AcDbEntity
8
0-C
6
CONTINUOUS
62
  7
100
AcDbVertex
100
AcDb2dVertex
10
6544.171444320515
20
4104.315025602584
30
0.0
0
VERTEX
5
762
100
AcDbEntity
8
0-C
6
CONTINUOUS
62
  7
100
AcDbVertex
100
AcDb2dVertex
10
6504.636543121154
20
4107.840858408986
30
0.0
0
SEQEND
5
763
100
AcDbEntity
8
0-C
0
LINE
5
764
100
AcDbEntity
8
0-C
6
CONTINUOUS
62
7
100
AcDbLine
10
6661.609605097983
20
3582.951509815698
30
0.0
11
6661.609605097983
21
4122.951509815697
31
0.0
0
LINE
5
765
100
AcDbEntity
8
0-C
6
CONTINUOUS
62
7
100
AcDbLine
10
6620.277469221662
20
4094.259259898457
30
0.0
11
6620.277469221662
21
3611.643759732938
31
0.0
0
LINE
5
766
100
AcDbEntity
8
0-C
6
CONTINUOUS
62
7
100
AcDbLine
10
6641.609605097983
20
4142.951509815697
30
0.0
11
6061.017434857724
21
4142.951509815697
31
0.0
0
POLYLINE
5
767
100
AcDbEntity
8
0-C
6
CONTINUOUS
62
  7
100
AcDb2dPolyline
66
1
10
0.0
20
0.0
30
0.0
70
0
0
VERTEX
5
768
100
AcDbEntity
8
0-C
6
CONTINUOUS
62
  7
100
AcDbVertex
100
AcDb2dVertex
10
6504.636543121154
20
4107.840858408986
30
0.0
0
VERTEX
5
769
100
AcDbEntity
8
0-C
6
CONTINUOUS
62
  7
100
AcDbVertex
100
AcDb2dVertex
10
6475.066146530220
20
4111.004596280471
30
0.0
0
VERTEX
5
76a
100
AcDbEntity
8
0-C
6
CONTINUOUS
62
  7
100
AcDbVertex
100
AcDb2dVertex
10
6445.450339633861
20
4113.705095380469
30
0.0
0
VERTEX
5
76b
100
AcDbEntity
8
0-C
6
CONTINUOUS
62
  7
100
AcDbVertex
100
AcDb2dVertex
10
6428.248457640397
20
4115.019272922285
30
0.0
0
VERTEX
5
76c
100
AcDbEntity
8
0-C
6
CONTINUOUS
62
  7
100
AcDbVertex
100
AcDb2dVertex
10
6413.789593326592
20
4115.963263060846
30
0.0
0
VERTEX
5
76d
100
AcDbEntity
8
0-C
6
CONTINUOUS
62
  7
100
AcDbVertex
100
AcDb2dVertex
10
6381.084449564674
20
4117.237647150248
30
0.0
0
VERTEX
5
76e
100
AcDbEntity
8
0-C
6
CONTINUOUS
62
  7
100
AcDbVertex
100
AcDb2dVertex
10
6356.105245577041
20
4118.055635476128
30
0.0
0
VERTEX
5
76f
100
AcDbEntity
8
0-C
6
CONTINUOUS
62
  7
100
AcDbVertex
100
AcDb2dVertex
10
6331.115339323934
20
4118.406383855134
30
0.0
0
VERTEX
5
770
100
AcDbEntity
8
0-C
6
CONTINUOUS
62
  7
100
AcDbVertex
100
AcDb2dVertex
10
6306.127272527770
20
4118.279048103912
30
0.0
0
VERTEX
5
771
100
AcDbEntity
8
0-C
6
CONTINUOUS
62
  7
100
AcDbVertex
100
AcDb2dVertex
10
6281.153586910965
20
4117.662784039109
30
0.0
0
VERTEX
5
772
100
AcDbEntity
8
0-C
6
CONTINUOUS
62
  7
100
AcDbVertex
100
AcDb2dVertex
10
6266.680380800400
20
4117.077050756102
30
0.0
0
VERTEX
5
773
100
AcDbEntity
8
0-C
6
CONTINUOUS
62
  7
100
AcDbVertex
100
AcDb2dVertex
10
6081.097184497601
20
4116.258831991122
30
0.0
0
SEQEND
5
774
100
AcDbEntity
8
0-C
0
LINE
5
775
100
AcDbEntity
8
F-F_J_ADD
6
HIDDEN
62
7
100
AcDbLine
10
607.387012383615
20
3852.951509815698
30
0.0
11
1117.387012383615
21
3852.951509815698
31
0.0
0
POLYLINE
5
776
100
AcDbEntity
8
0-C
6
CONTINUOUS
62
  7
100
AcDb2dPolyline
66
1
10
0.0
20
0.0
30
0.0
70
0
0
VERTEX
5
777
100
AcDbEntity
8
0-C
6
CONTINUOUS
62
  7
100
AcDbVertex
100
AcDb2dVertex
10
4750.041536319010
20
3639.644187640273
30
0.0
0
VERTEX
5
778
100
AcDbEntity
8
0-C
6
CONTINUOUS
62
  7
100
AcDbVertex
100
AcDb2dVertex
10
4723.201657740606
20
3641.464843681379
30
0.0
0
VERTEX
5
779
100
AcDbEntity
8
0-C
6
CONTINUOUS
62
  7
100
AcDbVertex
100
AcDb2dVertex
10
4696.391300695928
20
3643.722370968977
30
0.0
0
VERTEX
5
77a
100
AcDbEntity
8
0-C
6
CONTINUOUS
62
  7
100
AcDbVertex
100
AcDb2dVertex
10
4669.604019435255
20
3646.321382768028
30
0.0
0
VERTEX
5
77b
100
AcDbEntity
8
0-C
6
CONTINUOUS
62
  7
100
AcDbVertex
100
AcDb2dVertex
10
4642.833368208865
20
3649.166492343488
30
0.0
0
VERTEX
5
77c
100
AcDbEntity
8
0-C
6
CONTINUOUS
62
  7
100
AcDbVertex
100
AcDb2dVertex
10
4616.072901267035
20
3652.162312960315
30
0.0
0
VERTEX
5
77d
100
AcDbEntity
8
0-C
6
CONTINUOUS
62
  7
100
AcDbVertex
100
AcDb2dVertex
10
4600.553956919391
20
3653.931357383512
30
0.0
0
SEQEND
5
77e
100
AcDbEntity
8
0-C
0
LINE
5
77f
100
AcDbEntity
8
0-C
6
CONTINUOUS
62
7
100
AcDbLine
10
4645.371182544560
20
3625.753924964554
30
0.0
11
4645.371182544560
21
3648.896780568225
31
0.0
0
POLYLINE
5
780
100
AcDbEntity
8
0-C
6
CONTINUOUS
62
  7
100
AcDb2dPolyline
66
1
10
0.0
20
0.0
30
0.0
70
0
0
VERTEX
5
781
100
AcDbEntity
8
0-C
6
CONTINUOUS
62
  7
100
AcDbVertex
100
AcDb2dVertex
10
4645.371182544560
20
3625.753924964554
30
0.0
0
VERTEX
5
782
100
AcDbEntity
8
0-C
6
CONTINUOUS
62
  7
100
AcDbVertex
100
AcDb2dVertex
10
4649.380636419675
20
3624.867524147167
30
0.0
0
VERTEX
5
783
100
AcDbEntity
8
0-C
6
CONTINUOUS
62
  7
100
AcDbVertex
100
AcDb2dVertex
10
4656.295670651874
20
3623.353745201548
30
0.0
0
VERTEX
5
784
100
AcDbEntity
8
0-C
6
CONTINUOUS
62
  7
100
AcDbVertex
100
AcDb2dVertex
10
4663.216768004564
20
3621.880239382986
30
0.0
0
VERTEX
5
785
100
AcDbEntity
8
0-C
6
CONTINUOUS
62
  7
100
AcDbVertex
100
AcDb2dVertex
10
4670.147765895779
20
3620.472496012403
30
0.0
0
VERTEX
5
786
100
AcDbEntity
8
0-C
6
CONTINUOUS
62
  7
100
AcDbVertex
100
AcDb2dVertex
10
4677.092501743552
20
3619.156004410721
30
0.0
0
VERTEX
5
787
100
AcDbEntity
8
0-C
6
CONTINUOUS
62
  7
100
AcDbVertex
100
AcDb2dVertex
10
4684.054812965916
20
3617.956253898860
30
0.0
0
VERTEX
5
788
100
AcDbEntity
8
0-C
6
CONTINUOUS
62
  7
100
AcDbVertex
100
AcDb2dVertex
10
4688.102518653776
20
3617.323933487226
30
0.0
0
VERTEX
5
789
100
AcDbEntity
8
0-C
6
CONTINUOUS
62
  7
100
AcDbVertex
100
AcDb2dVertex
10
4692.021123099802
20
3616.761528429383
30
0.0
0
VERTEX
5
78a
100
AcDbEntity
8
0-C
6
CONTINUOUS
62
  7
100
AcDbVertex
100
AcDb2dVertex
10
4698.792736453041
20
3615.894148083830
30
0.0
0
VERTEX
5
78b
100
AcDbEntity
8
0-C
6
CONTINUOUS
62
  7
100
AcDbVertex
100
AcDb2dVertex
10
4705.580760468824
20
3615.135772449405
30
0.0
0
VERTEX
5
78c
100
AcDbEntity
8
0-C
6
CONTINUOUS
62
  7
100
AcDbVertex
100
AcDb2dVertex
10
4712.381612033061
20
3614.462601370839
30
0.0
0
VERTEX
5
78d
100
AcDbEntity
8
0-C
6
CONTINUOUS
62
  7
100
AcDbVertex
100
AcDb2dVertex
10
4719.191708031656
20
3613.850834692864
30
0.0
0
VERTEX
5
78e
100
AcDbEntity
8
0-C
6
CONTINUOUS
62
  7
100
AcDbVertex
100
AcDb2dVertex
10
4726.007465350520
20
3613.276672260212
30
0.0
0
VERTEX
5
78f
100
AcDbEntity
8
0-C
6
CONTINUOUS
62
  7
100
AcDbVertex
100
AcDb2dVertex
10
4729.961786679132
20
3612.951509815698
30
0.0
0
SEQEND
5
790
100
AcDbEntity
8
0-C
0
POLYLINE
5
791
100
AcDbEntity
  8
0-1
6
CONTINUOUS
62
4
100
AcDb2dPolyline
66
1
10
0
20
0
70
1
40
8.000
41
8.000
0
VERTEX
5
792
100
AcDbEntity
  8
0-1
6
CONTINUOUS
62
4
100
AcDbVertex
100
AcDb2dVertex
10
4301.442
20
3612.952
30
0.0
42
1.000
0
VERTEX
5
793
100
AcDbEntity
  8
0-1
6
CONTINUOUS
62
4
100
AcDbVertex
100
AcDb2dVertex
10
4309.442
20
3612.952
30
0.0
42
1.000
0
SEQEND
5
794
100
AcDbEntity
  8
0-1
0
LINE
5
795
100
AcDbEntity
8
0-1
6
CONTINUOUS
62
4
100
AcDbLine
10
4305.441821676820
20
3612.951509815698
30
0.0
11
4482.585873418500
21
3612.951509815698
31
0.0
0
ARC
5
796
100
AcDbEntity
8
0-C
6
CONTINUOUS
62
7
100
AcDbCircle
10
5310.553956919391
20
3632.951509815698
30
0.0
40
20.000000000000
100
AcDbArc
50
270.000000000000
51
360.000000000000
0
POLYLINE
5
797
100
AcDbEntity
8
0-C
6
CONTINUOUS
62
  7
100
AcDb2dPolyline
66
1
10
0.0
20
0.0
30
0.0
70
0
0
VERTEX
5
798
100
AcDbEntity
8
0-C
6
CONTINUOUS
62
  7
100
AcDbVertex
100
AcDb2dVertex
10
5289.221821043069
20
3661.643759732938
30
0.0
0
VERTEX
5
799
100
AcDbEntity
8
0-C
6
CONTINUOUS
62
  7
100
AcDbVertex
100
AcDb2dVertex
10
5272.118772021310
20
3659.321369100092
30
0.0
0
VERTEX
5
79a
100
AcDbEntity
8
0-C
6
CONTINUOUS
62
  7
100
AcDbVertex
100
AcDb2dVertex
10
5242.625116863556
20
3655.374777933562
30
0.0
0
VERTEX
5
79b
100
AcDbEntity
8
0-C
6
CONTINUOUS
62
  7
100
AcDbVertex
100
AcDb2dVertex
10
5213.115796141923
20
3651.587994028811
30
0.0
0
VERTEX
5
79c
100
AcDbEntity
8
0-C
6
CONTINUOUS
62
  7
100
AcDbVertex
100
AcDb2dVertex
10
5173.580894942563
20
3648.062161222409
30
0.0
0
SEQEND
5
79d
100
AcDbEntity
8
0-C
0
LINE
5
79e
100
AcDbEntity
8
0-C
6
CONTINUOUS
62
7
100
AcDbLine
10
5310.553956919391
20
3612.951509815698
30
0.0
11
4729.961786679132
21
3612.951509815698
31
0.0
0
POLYLINE
5
79f
100
AcDbEntity
8
0-C
6
CONTINUOUS
62
  7
100
AcDb2dPolyline
66
1
10
0.0
20
0.0
30
0.0
70
0
0
VERTEX
5
7a0
100
AcDbEntity
8
0-C
6
CONTINUOUS
62
  7
100
AcDbVertex
100
AcDb2dVertex
10
5173.580894942563
20
3648.062161222409
30
0.0
0
VERTEX
5
7a1
100
AcDbEntity
8
0-C
6
CONTINUOUS
62
  7
100
AcDbVertex
100
AcDb2dVertex
10
5144.010498351628
20
3644.898423350924
30
0.0
0
VERTEX
5
7a2
100
AcDbEntity
8
0-C
6
CONTINUOUS
62
  7
100
AcDbVertex
100
AcDb2dVertex
10
5114.394691455269
20
3642.197924250926
30
0.0
0
VERTEX
5
7a3
100
AcDbEntity
8
0-C
6
CONTINUOUS
62
  7
100
AcDbVertex
100
AcDb2dVertex
10
5097.192809461805
20
3640.883746709110
30
0.0
0
VERTEX
5
7a4
100
AcDbEntity
8
0-C
6
CONTINUOUS
62
  7
100
AcDbVertex
100
AcDb2dVertex
10
5082.733945147999
20
3639.939756570549
30
0.0
0
VERTEX
5
7a5
100
AcDbEntity
8
0-C
6
CONTINUOUS
62
  7
100
AcDbVertex
100
AcDb2dVertex
10
5050.028801386083
20
3638.665372481147
30
0.0
0
VERTEX
5
7a6
100
AcDbEntity
8
0-C
6
CONTINUOUS
62
  7
100
AcDbVertex
100
AcDb2dVertex
10
5025.049597398448
20
3637.847384155267
30
0.0
0
VERTEX
5
7a7
100
AcDbEntity
8
0-C
6
CONTINUOUS
62
  7
100
AcDbVertex
100
AcDb2dVertex
10
5000.059691145341
20
3637.496635776261
30
0.0
0
VERTEX
5
7a8
100
AcDbEntity
8
0-C
6
CONTINUOUS
62
  7
100
AcDbVertex
100
AcDb2dVertex
10
4975.071624349179
20
3637.623971527483
30
0.0
0
VERTEX
5
7a9
100
AcDbEntity
8
0-C
6
CONTINUOUS
62
  7
100
AcDbVertex
100
AcDb2dVertex
10
4950.097938732372
20
3638.240235592286
30
0.0
0
VERTEX
5
7aa
100
AcDbEntity
8
0-C
6
CONTINUOUS
62
  7
100
AcDbVertex
100
AcDb2dVertex
10
4935.624732621807
20
3638.825968875293
30
0.0
0
VERTEX
5
7ab
100
AcDbEntity
8
0-C
6
CONTINUOUS
62
  7
100
AcDbVertex
100
AcDb2dVertex
10
4750.041536319010
20
3639.644187640273
30
0.0
0
SEQEND
5
7ac
100
AcDbEntity
8
0-C
0
POLYLINE
5
7ad
100
AcDbEntity
8
0-C
6
CONTINUOUS
62
  7
100
AcDb2dPolyline
66
1
10
0.0
20
0.0
30
0.0
70
0
0
VERTEX
5
7ae
100
AcDbEntity
8
0-C
6
CONTINUOUS
62
  7
100
AcDbVertex
100
AcDb2dVertex
10
4750.041536319010
20
4066.258831991122
30
0.0
0
VERTEX
5
7af
100
AcDbEntity
8
0-C
6
CONTINUOUS
62
  7
100
AcDbVertex
100
AcDb2dVertex
10
4723.201657740606
20
4064.438175950017
30
0.0
0
VERTEX
5
7b0
100
AcDbEntity
8
0-C
6
CONTINUOUS
62
  7
100
AcDbVertex
100
AcDb2dVertex
10
4696.391300695928
20
4062.180648662418
30
0.0
0
VERTEX
5
7b1
100
AcDbEntity
8
0-C
6
CONTINUOUS
62
  7
100
AcDbVertex
100
AcDb2dVertex
10
4669.604019435255
20
4059.581636863367
30
0.0
0
VERTEX
5
7b2
100
AcDbEntity
8
0-C
6
CONTINUOUS
62
  7
100
AcDbVertex
100
AcDb2dVertex
10
4642.833368208865
20
4056.736527287907
30
0.0
0
VERTEX
5
7b3
100
AcDbEntity
8
0-C
6
CONTINUOUS
62
  7
100
AcDbVertex
100
AcDb2dVertex
10
4616.072901267035
20
4053.740706671080
30
0.0
0
VERTEX
5
7b4
100
AcDbEntity
8
0-C
6
CONTINUOUS
62
  7
100
AcDbVertex
100
AcDb2dVertex
10
4600.553956919391
20
4051.971662247884
30
0.0
0
SEQEND
5
7b5
100
AcDbEntity
8
0-C
0
LINE
5
7b6
100
AcDbEntity
8
0-C
6
CONTINUOUS
62
7
100
AcDbLine
10
4645.371182544560
20
4080.149094666841
30
0.0
11
4645.371182544560
21
4057.006239063171
31
0.0
0
POLYLINE
5
7b7
100
AcDbEntity
8
0-C
6
CONTINUOUS
62
  7
100
AcDb2dPolyline
66
1
10
0.0
20
0.0
30
0.0
70
0
0
VERTEX
5
7b8
100
AcDbEntity
8
0-C
6
CONTINUOUS
62
  7
100
AcDbVertex
100
AcDb2dVertex
10
4645.371182544560
20
4080.149094666841
30
0.0
0
VERTEX
5
7b9
100
AcDbEntity
8
0-C
6
CONTINUOUS
62
  7
100
AcDbVertex
100
AcDb2dVertex
10
4649.380636419675
20
4081.035495484229
30
0.0
0
VERTEX
5
7ba
100
AcDbEntity
8
0-C
6
CONTINUOUS
62
  7
100
AcDbVertex
100
AcDb2dVertex
10
4656.295670651874
20
4082.549274429847
30
0.0
0
VERTEX
5
7bb
100
AcDbEntity
8
0-C
6
CONTINUOUS
62
  7
100
AcDbVertex
100
AcDb2dVertex
10
4663.216768004564
20
4084.022780248409
30
0.0
0
VERTEX
5
7bc
100
AcDbEntity
8
0-C
6
CONTINUOUS
62
  7
100
AcDbVertex
100
AcDb2dVertex
10
4670.147765895779
20
4085.430523618992
30
0.0
0
VERTEX
5
7bd
100
AcDbEntity
8
0-C
6
CONTINUOUS
62
  7
100
AcDbVertex
100
AcDb2dVertex
10
4677.092501743552
20
4086.747015220674
30
0.0
0
VERTEX
5
7be
100
AcDbEntity
8
0-C
6
CONTINUOUS
62
  7
100
AcDbVertex
100
AcDb2dVertex
10
4684.054812965916
20
4087.946765732535
30
0.0
0
VERTEX
5
7bf
100
AcDbEntity
8
0-C
6
CONTINUOUS
62
  7
100
AcDbVertex
100
AcDb2dVertex
10
4688.102518653776
20
4088.579086144169
30
0.0
0
VERTEX
5
7c0
100
AcDbEntity
8
0-C
6
CONTINUOUS
62
  7
100
AcDbVertex
100
AcDb2dVertex
10
4692.021123099802
20
4089.141491202012
30
0.0
0
VERTEX
5
7c1
100
AcDbEntity
8
0-C
6
CONTINUOUS
62
  7
100
AcDbVertex
100
AcDb2dVertex
10
4698.792736453041
20
4090.008871547565
30
0.0
0
VERTEX
5
7c2
100
AcDbEntity
8
0-C
6
CONTINUOUS
62
  7
100
AcDbVertex
100
AcDb2dVertex
10
4705.580760468824
20
4090.767247181990
30
0.0
0
VERTEX
5
7c3
100
AcDbEntity
8
0-C
6
CONTINUOUS
62
  7
100
AcDbVertex
100
AcDb2dVertex
10
4712.381612033061
20
4091.440418260556
30
0.0
0
VERTEX
5
7c4
100
AcDbEntity
8
0-C
6
CONTINUOUS
62
  7
100
AcDbVertex
100
AcDb2dVertex
10
4719.191708031656
20
4092.052184938531
30
0.0
0
VERTEX
5
7c5
100
AcDbEntity
8
0-C
6
CONTINUOUS
62
  7
100
AcDbVertex
100
AcDb2dVertex
10
4726.007465350520
20
4092.626347371183
30
0.0
0
VERTEX
5
7c6
100
AcDbEntity
8
0-C
6
CONTINUOUS
62
  7
100
AcDbVertex
100
AcDb2dVertex
10
4729.961786679132
20
4092.951509815698
30
0.0
0
SEQEND
5
7c7
100
AcDbEntity
8
0-C
0
POLYLINE
5
7c8
100
AcDbEntity
  8
0-1
6
CONTINUOUS
62
4
100
AcDb2dPolyline
66
1
10
0
20
0
70
1
40
8.000
41
8.000
0
VERTEX
5
7c9
100
AcDbEntity
  8
0-1
6
CONTINUOUS
62
4
100
AcDbVertex
100
AcDb2dVertex
10
4301.442
20
4092.952
30
0.0
42
1.000
0
VERTEX
5
7ca
100
AcDbEntity
  8
0-1
6
CONTINUOUS
62
4
100
AcDbVertex
100
AcDb2dVertex
10
4309.442
20
4092.952
30
0.0
42
1.000
0
SEQEND
5
7cb
100
AcDbEntity
  8
0-1
0
LINE
5
7cc
100
AcDbEntity
8
0-1
6
CONTINUOUS
62
4
100
AcDbLine
10
4305.441821676820
20
4092.951509815698
30
0.0
11
4482.585873418500
21
4092.951509815698
31
0.0
0
ARC
5
7cd
100
AcDbEntity
8
0-C
6
CONTINUOUS
62
7
100
AcDbCircle
10
5310.553956919391
20
4072.951509815698
30
0.0
40
20.000000000000
100
AcDbArc
50
360.000000000000
51
450.000000000000
0
POLYLINE
5
7ce
100
AcDbEntity
8
0-C
6
CONTINUOUS
62
  7
100
AcDb2dPolyline
66
1
10
0.0
20
0.0
30
0.0
70
0
0
VERTEX
5
7cf
100
AcDbEntity
8
0-C
6
CONTINUOUS
62
  7
100
AcDbVertex
100
AcDb2dVertex
10
5289.221821043069
20
4044.259259898457
30
0.0
0
VERTEX
5
7d0
100
AcDbEntity
8
0-C
6
CONTINUOUS
62
  7
100
AcDbVertex
100
AcDb2dVertex
10
5272.118772021310
20
4046.581650531303
30
0.0
0
VERTEX
5
7d1
100
AcDbEntity
8
0-C
6
CONTINUOUS
62
  7
100
AcDbVertex
100
AcDb2dVertex
10
5242.625116863556
20
4050.528241697833
30
0.0
0
VERTEX
5
7d2
100
AcDbEntity
8
0-C
6
CONTINUOUS
62
  7
100
AcDbVertex
100
AcDb2dVertex
10
5213.115796141923
20
4054.315025602584
30
0.0
0
VERTEX
5
7d3
100
AcDbEntity
8
0-C
6
CONTINUOUS
62
  7
100
AcDbVertex
100
AcDb2dVertex
10
5173.580894942563
20
4057.840858408986
30
0.0
0
SEQEND
5
7d4
100
AcDbEntity
8
0-C
0
LINE
5
7d5
100
AcDbEntity
8
0-C
6
CONTINUOUS
62
7
100
AcDbLine
10
5310.553956919391
20
4092.951509815698
30
0.0
11
4729.961786679132
21
4092.951509815698
31
0.0
0
POLYLINE
5
7d6
100
AcDbEntity
8
0-C
6
CONTINUOUS
62
  7
100
AcDb2dPolyline
66
1
10
0.0
20
0.0
30
0.0
70
0
0
VERTEX
5
7d7
100
AcDbEntity
8
0-C
6
CONTINUOUS
62
  7
100
AcDbVertex
100
AcDb2dVertex
10
5173.580894942563
20
4057.840858408986
30
0.0
0
VERTEX
5
7d8
100
AcDbEntity
8
0-C
6
CONTINUOUS
62
  7
100
AcDbVertex
100
AcDb2dVertex
10
5144.010498351628
20
4061.004596280471
30
0.0
0
VERTEX
5
7d9
100
AcDbEntity
8
0-C
6
CONTINUOUS
62
  7
100
AcDbVertex
100
AcDb2dVertex
10
5114.394691455269
20
4063.705095380469
30
0.0
0
VERTEX
5
7da
100
AcDbEntity
8
0-C
6
CONTINUOUS
62
  7
100
AcDbVertex
100
AcDb2dVertex
10
5097.192809461805
20
4065.019272922285
30
0.0
0
VERTEX
5
7db
100
AcDbEntity
8
0-C
6
CONTINUOUS
62
  7
100
AcDbVertex
100
AcDb2dVertex
10
5082.733945147999
20
4065.963263060846
30
0.0
0
VERTEX
5
7dc
100
AcDbEntity
8
0-C
6
CONTINUOUS
62
  7
100
AcDbVertex
100
AcDb2dVertex
10
5050.028801386083
20
4067.237647150248
30
0.0
0
VERTEX
5
7dd
100
AcDbEntity
8
0-C
6
CONTINUOUS
62
  7
100
AcDbVertex
100
AcDb2dVertex
10
5025.049597398448
20
4068.055635476128
30
0.0
0
VERTEX
5
7de
100
AcDbEntity
8
0-C
6
CONTINUOUS
62
  7
100
AcDbVertex
100
AcDb2dVertex
10
5000.059691145341
20
4068.406383855134
30
0.0
0
VERTEX
5
7df
100
AcDbEntity
8
0-C
6
CONTINUOUS
62
  7
100
AcDbVertex
100
AcDb2dVertex
10
4975.071624349179
20
4068.279048103912
30
0.0
0
VERTEX
5
7e0
100
AcDbEntity
8
0-C
6
CONTINUOUS
62
  7
100
AcDbVertex
100
AcDb2dVertex
10
4950.097938732372
20
4067.662784039109
30
0.0
0
VERTEX
5
7e1
100
AcDbEntity
8
0-C
6
CONTINUOUS
62
  7
100
AcDbVertex
100
AcDb2dVertex
10
4935.624732621807
20
4067.077050756102
30
0.0
0
VERTEX
5
7e2
100
AcDbEntity
8
0-C
6
CONTINUOUS
62
  7
100
AcDbVertex
100
AcDb2dVertex
10
4750.041536319010
20
4066.258831991122
30
0.0
0
SEQEND
5
7e3
100
AcDbEntity
8
0-C
0
LINE
5
7e4
100
AcDbEntity
8
0-C
6
CONTINUOUS
62
7
100
AcDbLine
10
4600.553956919391
20
4051.971662247884
30
0.0
11
4600.553956919391
21
3653.931357383512
31
0.0
0
LINE
5
7e5
100
AcDbEntity
8
0-1
6
CONTINUOUS
62
4
100
AcDbLine
10
4305.441821676820
20
3612.951509815698
30
0.0
11
4305.441821676820
21
4092.951509815698
31
0.0
0
TEXT
5
7e6
100
AcDbEntity
8
0-1
62
4
370
-3
100
AcDbText
10
4294.697
20
3810.752
30
0.0
40
58.905
41
0.471
50
90.000
1
480
72
1
11
4301.242
21
3855.752
31
0.0
100
AcDbText
73
1
0
LINE
5
7e7
100
AcDbEntity
8
0-C
6
CONTINUOUS
62
7
100
AcDbLine
10
5330.553956919391
20
3632.951509815698
30
0.0
11
5330.553956919391
21
4072.951509815698
31
0.0
0
LINE
5
7e8
100
AcDbEntity
8
0-C
6
CONTINUOUS
62
7
100
AcDbLine
10
5289.221821043069
20
4044.259259898457
30
0.0
11
5289.221821043069
21
3661.643759732938
31
0.0
0
POLYLINE
5
7e9
100
AcDbEntity
  8
0-1
6
CONTINUOUS
62
4
100
AcDb2dPolyline
66
1
10
0
20
0
70
1
40
8.000
41
8.000
0
VERTEX
5
7ea
100
AcDbEntity
  8
0-1
6
CONTINUOUS
62
4
100
AcDbVertex
100
AcDb2dVertex
10
7258.665
20
4696.094
30
0.0
42
1.000
0
VERTEX
5
7eb
100
AcDbEntity
  8
0-1
6
CONTINUOUS
62
4
100
AcDbVertex
100
AcDb2dVertex
10
7266.665
20
4696.094
30
0.0
42
1.000
0
SEQEND
5
7ec
100
AcDbEntity
  8
0-1
0
POLYLINE
5
7ed
100
AcDbEntity
  8
0-1
6
CONTINUOUS
62
4
100
AcDb2dPolyline
66
1
10
0
20
0
70
1
40
8.000
41
8.000
0
VERTEX
5
7ee
100
AcDbEntity
  8
0-1
6
CONTINUOUS
62
4
100
AcDbVertex
100
AcDb2dVertex
10
7925.665
20
4696.094
30
0.0
42
1.000
0
VERTEX
5
7ef
100
AcDbEntity
  8
0-1
6
CONTINUOUS
62
4
100
AcDbVertex
100
AcDb2dVertex
10
7933.665
20
4696.094
30
0.0
42
1.000
0
SEQEND
5
7f0
100
AcDbEntity
  8
0-1
0
LINE
5
7f1
100
AcDbEntity
8
0-1
6
CONTINUOUS
62
4
100
AcDbLine
10
7262.665253276575
20
4696.093983659576
30
0.0
11
7262.665253276575
21
4518.949931917895
31
0.0
0
LINE
5
7f2
100
AcDbEntity
8
0-1
6
CONTINUOUS
62
4
100
AcDbLine
10
7929.665253276576
20
4696.093983659576
30
0.0
11
7929.665253276576
21
4518.949931917895
31
0.0
0
LINE
5
7f3
100
AcDbEntity
8
0-1
6
CONTINUOUS
62
4
100
AcDbLine
10
7262.665253276575
20
4696.093983659576
30
0.0
11
7929.665253276576
21
4696.093983659576
31
0.0
0
TEXT
5
7f4
100
AcDbEntity
8
0-1
62
4
370
-3
100
AcDbText
10
7553.965
20
4706.839
30
0.0
40
58.905
41
0.443
50
0.000
1
667
72
1
11
7598.965
21
4700.294
31
0.0
100
AcDbText
73
1
0
POLYLINE
5
7f5
100
AcDbEntity
  8
0-1
6
CONTINUOUS
62
4
100
AcDb2dPolyline
66
1
10
0
20
0
70
1
40
8.000
41
8.000
0
VERTEX
5
7f6
100
AcDbEntity
  8
0-1
6
CONTINUOUS
62
4
100
AcDbVertex
100
AcDb2dVertex
10
603.387
20
4696.094
30
0.0
42
1.000
0
VERTEX
5
7f7
100
AcDbEntity
  8
0-1
6
CONTINUOUS
62
4
100
AcDbVertex
100
AcDb2dVertex
10
611.387
20
4696.094
30
0.0
42
1.000
0
SEQEND
5
7f8
100
AcDbEntity
  8
0-1
0
POLYLINE
5
7f9
100
AcDbEntity
  8
0-1
6
CONTINUOUS
62
4
100
AcDb2dPolyline
66
1
10
0
20
0
70
1
40
8.000
41
8.000
0
VERTEX
5
7fa
100
AcDbEntity
  8
0-1
6
CONTINUOUS
62
4
100
AcDbVertex
100
AcDb2dVertex
10
1113.387
20
4696.094
30
0.0
42
1.000
0
VERTEX
5
7fb
100
AcDbEntity
  8
0-1
6
CONTINUOUS
62
4
100
AcDbVertex
100
AcDb2dVertex
10
1121.387
20
4696.094
30
0.0
42
1.000
0
SEQEND
5
7fc
100
AcDbEntity
  8
0-1
0
LINE
5
7fd
100
AcDbEntity
8
0-1
6
CONTINUOUS
62
4
100
AcDbLine
10
607.387012383615
20
4696.093983659576
30
0.0
11
607.387012383615
21
4518.949931917895
31
0.0
0
LINE
5
7fe
100
AcDbEntity
8
0-1
6
CONTINUOUS
62
4
100
AcDbLine
10
1117.387012383615
20
4696.093983659576
30
0.0
11
1117.387012383615
21
4518.949931917895
31
0.0
0
LINE
5
7ff
100
AcDbEntity
8
0-1
6
CONTINUOUS
62
4
100
AcDbLine
10
607.387012383615
20
4696.093983659576
30
0.0
11
1117.387012383615
21
4696.093983659576
31
0.0
0
TEXT
5
800
100
AcDbEntity
8
0-1
62
4
370
-3
100
AcDbText
10
820.187
20
4706.839
30
0.0
40
58.905
41
0.541
50
0.000
1
510
72
1
11
865.187
21
4700.294
31
0.0
100
AcDbText
73
1
0
POLYLINE
5
801
100
AcDbEntity
  8
0-1
6
CONTINUOUS
62
4
100
AcDb2dPolyline
66
1
10
0
20
0
70
1
40
8.000
41
8.000
0
VERTEX
5
802
100
AcDbEntity
  8
0-1
6
CONTINUOUS
62
4
100
AcDbVertex
100
AcDb2dVertex
10
1934.443
20
4696.094
30
0.0
42
1.000
0
VERTEX
5
803
100
AcDbEntity
  8
0-1
6
CONTINUOUS
62
4
100
AcDbVertex
100
AcDb2dVertex
10
1942.443
20
4696.094
30
0.0
42
1.000
0
SEQEND
5
804
100
AcDbEntity
  8
0-1
0
POLYLINE
5
805
100
AcDbEntity
  8
0-1
6
CONTINUOUS
62
4
100
AcDb2dPolyline
66
1
10
0
20
0
70
1
40
8.000
41
8.000
0
VERTEX
5
806
100
AcDbEntity
  8
0-1
6
CONTINUOUS
62
4
100
AcDbVertex
100
AcDb2dVertex
10
2484.443
20
4696.094
30
0.0
42
1.000
0
VERTEX
5
807
100
AcDbEntity
  8
0-1
6
CONTINUOUS
62
4
100
AcDbVertex
100
AcDb2dVertex
10
2492.443
20
4696.094
30
0.0
42
1.000
0
SEQEND
5
808
100
AcDbEntity
  8
0-1
0
LINE
5
809
100
AcDbEntity
8
0-1
6
CONTINUOUS
62
4
100
AcDbLine
10
1938.442660562207
20
4696.093983659576
30
0.0
11
1938.442660562207
21
4518.949931917895
31
0.0
0
LINE
5
80a
100
AcDbEntity
8
0-1
6
CONTINUOUS
62
4
100
AcDbLine
10
2488.442660562207
20
4696.093983659576
30
0.0
11
2488.442660562207
21
4518.949931917895
31
0.0
0
LINE
5
80b
100
AcDbEntity
8
0-1
6
CONTINUOUS
62
4
100
AcDbLine
10
1938.442660562207
20
4696.093983659576
30
0.0
11
2488.442660562207
21
4696.093983659576
31
0.0
0
TEXT
5
80c
100
AcDbEntity
8
0-1
62
4
370
-3
100
AcDbText
10
2171.243
20
4706.839
30
0.0
40
58.905
41
0.460
50
0.000
1
550
72
1
11
2216.243
21
4700.294
31
0.0
100
AcDbText
73
1
0
POLYLINE
5
80d
100
AcDbEntity
  8
0-1
6
CONTINUOUS
62
4
100
AcDb2dPolyline
66
1
10
0
20
0
70
1
40
8.000
41
8.000
0
VERTEX
5
80e
100
AcDbEntity
  8
0-1
6
CONTINUOUS
62
4
100
AcDbVertex
100
AcDb2dVertex
10
3265.498
20
4696.094
30
0.0
42
1.000
0
VERTEX
5
80f
100
AcDbEntity
  8
0-1
6
CONTINUOUS
62
4
100
AcDbVertex
100
AcDb2dVertex
10
3273.498
20
4696.094
30
0.0
42
1.000
0
SEQEND
5
810
100
AcDbEntity
  8
0-1
0
POLYLINE
5
811
100
AcDbEntity
  8
0-1
6
CONTINUOUS
62
4
100
AcDb2dPolyline
66
1
10
0
20
0
70
1
40
8.000
41
8.000
0
VERTEX
5
812
100
AcDbEntity
  8
0-1
6
CONTINUOUS
62
4
100
AcDbVertex
100
AcDb2dVertex
10
3825.498
20
4696.094
30
0.0
42
1.000
0
VERTEX
5
813
100
AcDbEntity
  8
0-1
6
CONTINUOUS
62
4
100
AcDbVertex
100
AcDb2dVertex
10
3833.498
20
4696.094
30
0.0
42
1.000
0
SEQEND
5
814
100
AcDbEntity
  8
0-1
0
LINE
5
815
100
AcDbEntity
8
0-1
6
CONTINUOUS
62
4
100
AcDbLine
10
3269.498308740799
20
4696.093983659576
30
0.0
11
3269.498308740799
21
4518.949931917895
31
0.0
0
LINE
5
816
100
AcDbEntity
8
0-1
6
CONTINUOUS
62
4
100
AcDbLine
10
3829.498308740799
20
4696.093983659576
30
0.0
11
3829.498308740799
21
4518.949931917895
31
0.0
0
LINE
5
817
100
AcDbEntity
8
0-1
6
CONTINUOUS
62
4
100
AcDbLine
10
3269.498308740799
20
4696.093983659576
30
0.0
11
3829.498308740799
21
4696.093983659576
31
0.0
0
TEXT
5
818
100
AcDbEntity
8
0-1
62
4
370
-3
100
AcDbText
10
3507.298
20
4706.839
30
0.0
40
58.905
41
0.462
50
0.000
1
560
72
1
11
3552.298
21
4700.294
31
0.0
100
AcDbText
73
1
0
POLYLINE
5
819
100
AcDbEntity
  8
0-1
6
CONTINUOUS
62
4
100
AcDb2dPolyline
66
1
10
0
20
0
70
1
40
8.000
41
8.000
0
VERTEX
5
81a
100
AcDbEntity
  8
0-1
6
CONTINUOUS
62
4
100
AcDbVertex
100
AcDb2dVertex
10
4596.554
20
4696.094
30
0.0
42
1.000
0
VERTEX
5
81b
100
AcDbEntity
  8
0-1
6
CONTINUOUS
62
4
100
AcDbVertex
100
AcDb2dVertex
10
4604.554
20
4696.094
30
0.0
42
1.000
0
SEQEND
5
81c
100
AcDbEntity
  8
0-1
0
POLYLINE
5
81d
100
AcDbEntity
  8
0-1
6
CONTINUOUS
62
4
100
AcDb2dPolyline
66
1
10
0
20
0
70
1
40
8.000
41
8.000
0
VERTEX
5
81e
100
AcDbEntity
  8
0-1
6
CONTINUOUS
62
4
100
AcDbVertex
100
AcDb2dVertex
10
5326.554
20
4696.094
30
0.0
42
1.000
0
VERTEX
5
81f
100
AcDbEntity
  8
0-1
6
CONTINUOUS
62
4
100
AcDbVertex
100
AcDb2dVertex
10
5334.554
20
4696.094
30
0.0
42
1.000
0
SEQEND
5
820
100
AcDbEntity
  8
0-1
0
LINE
5
821
100
AcDbEntity
8
0-1
6
CONTINUOUS
62
4
100
AcDbLine
10
4600.553956919391
20
4696.093983659576
30
0.0
11
4600.553956919391
21
4518.949931917895
31
0.0
0
LINE
5
822
100
AcDbEntity
8
0-1
6
CONTINUOUS
62
4
100
AcDbLine
10
5330.553956919391
20
4696.093983659576
30
0.0
11
5330.553956919391
21
4518.949931917895
31
0.0
0
LINE
5
823
100
AcDbEntity
8
0-1
6
CONTINUOUS
62
4
100
AcDbLine
10
4600.553956919391
20
4696.093983659576
30
0.0
11
5330.553956919391
21
4696.093983659576
31
0.0
0
TEXT
5
824
100
AcDbEntity
8
0-1
62
4
370
-3
100
AcDbText
10
4923.354
20
4706.839
30
0.0
40
58.905
41
0.478
50
0.000
1
730
72
1
11
4968.354
21
4700.294
31
0.0
100
AcDbText
73
1
0
POLYLINE
5
825
100
AcDbEntity
  8
0-1
6
CONTINUOUS
62
4
100
AcDb2dPolyline
66
1
10
0
20
0
70
1
40
8.000
41
8.000
0
VERTEX
5
826
100
AcDbEntity
  8
0-1
6
CONTINUOUS
62
4
100
AcDbVertex
100
AcDb2dVertex
10
5927.610
20
4696.094
30
0.0
42
1.000
0
VERTEX
5
827
100
AcDbEntity
  8
0-1
6
CONTINUOUS
62
4
100
AcDbVertex
100
AcDb2dVertex
10
5935.610
20
4696.094
30
0.0
42
1.000
0
SEQEND
5
828
100
AcDbEntity
  8
0-1
0
POLYLINE
5
829
100
AcDbEntity
  8
0-1
6
CONTINUOUS
62
4
100
AcDb2dPolyline
66
1
10
0
20
0
70
1
40
8.000
41
8.000
0
VERTEX
5
82a
100
AcDbEntity
  8
0-1
6
CONTINUOUS
62
4
100
AcDbVertex
100
AcDb2dVertex
10
6657.610
20
4696.094
30
0.0
42
1.000
0
VERTEX
5
82b
100
AcDbEntity
  8
0-1
6
CONTINUOUS
62
4
100
AcDbVertex
100
AcDb2dVertex
10
6665.610
20
4696.094
30
0.0
42
1.000
0
SEQEND
5
82c
100
AcDbEntity
  8
0-1
0
LINE
5
82d
100
AcDbEntity
8
0-1
6
CONTINUOUS
62
4
100
AcDbLine
10
5931.609605097983
20
4696.093983659576
30
0.0
11
5931.609605097983
21
4518.949931917895
31
0.0
0
LINE
5
82e
100
AcDbEntity
8
0-1
6
CONTINUOUS
62
4
100
AcDbLine
10
6661.609605097983
20
4696.093983659576
30
0.0
11
6661.609605097983
21
4518.949931917895
31
0.0
0
LINE
5
82f
100
AcDbEntity
8
0-1
6
CONTINUOUS
62
4
100
AcDbLine
10
5931.609605097983
20
4696.093983659576
30
0.0
11
6661.609605097983
21
4696.093983659576
31
0.0
0
TEXT
5
830
100
AcDbEntity
8
0-1
62
4
370
-3
100
AcDbText
10
6254.410
20
4706.839
30
0.0
40
58.905
41
0.478
50
0.000
1
730
72
1
11
6299.410
21
4700.294
31
0.0
100
AcDbText
73
1
0
POLYLINE
5
831
100
AcDbEntity
  8
0-1
6
CONTINUOUS
62
4
100
AcDb2dPolyline
66
1
10
0
20
0
70
1
40
8.000
41
8.000
0
VERTEX
5
832
100
AcDbEntity
  8
0-1
6
CONTINUOUS
62
4
100
AcDbVertex
100
AcDb2dVertex
10
603.387
20
2798.600
30
0.0
42
1.000
0
VERTEX
5
833
100
AcDbEntity
  8
0-1
6
CONTINUOUS
62
4
100
AcDbVertex
100
AcDb2dVertex
10
611.387
20
2798.600
30
0.0
42
1.000
0
SEQEND
5
834
100
AcDbEntity
  8
0-1
0
POLYLINE
5
835
100
AcDbEntity
  8
0-1
6
CONTINUOUS
62
4
100
AcDb2dPolyline
66
1
10
0
20
0
70
1
40
8.000
41
8.000
0
VERTEX
5
836
100
AcDbEntity
  8
0-1
6
CONTINUOUS
62
4
100
AcDbVertex
100
AcDb2dVertex
10
1113.387
20
2798.600
30
0.0
42
1.000
0
VERTEX
5
837
100
AcDbEntity
  8
0-1
6
CONTINUOUS
62
4
100
AcDbVertex
100
AcDb2dVertex
10
1121.387
20
2798.600
30
0.0
42
1.000
0
SEQEND
5
838
100
AcDbEntity
  8
0-1
0
LINE
5
839
100
AcDbEntity
8
0-1
6
CONTINUOUS
62
4
100
AcDbLine
10
607.387012383615
20
2798.600369829352
30
0.0
11
607.387012383615
21
2621.456318087671
31
0.0
0
LINE
5
83a
100
AcDbEntity
8
0-1
6
CONTINUOUS
62
4
100
AcDbLine
10
1117.387012383615
20
2798.600369829352
30
0.0
11
1117.387012383615
21
2621.456318087671
31
0.0
0
LINE
5
83b
100
AcDbEntity
8
0-1
6
CONTINUOUS
62
4
100
AcDbLine
10
607.387012383615
20
2798.600369829352
30
0.0
11
1117.387012383615
21
2798.600369829352
31
0.0
0
TEXT
5
83c
100
AcDbEntity
8
0-1
62
4
370
-3
100
AcDbText
10
820.187
20
2809.345
30
0.0
40
58.905
41
0.541
50
0.000
1
510
72
1
11
865.187
21
2802.800
31
0.0
100
AcDbText
73
1
0
POLYLINE
5
83d
100
AcDbEntity
  8
0-1
6
CONTINUOUS
62
4
100
AcDb2dPolyline
66
1
10
0
20
0
70
1
40
8.000
41
8.000
0
VERTEX
5
83e
100
AcDbEntity
  8
0-1
6
CONTINUOUS
62
4
100
AcDbVertex
100
AcDb2dVertex
10
1934.443
20
2798.600
30
0.0
42
1.000
0
VERTEX
5
83f
100
AcDbEntity
  8
0-1
6
CONTINUOUS
62
4
100
AcDbVertex
100
AcDb2dVertex
10
1942.443
20
2798.600
30
0.0
42
1.000
0
SEQEND
5
840
100
AcDbEntity
  8
0-1
0
POLYLINE
5
841
100
AcDbEntity
  8
0-1
6
CONTINUOUS
62
4
100
AcDb2dPolyline
66
1
10
0
20
0
70
1
40
8.000
41
8.000
0
VERTEX
5
842
100
AcDbEntity
  8
0-1
6
CONTINUOUS
62
4
100
AcDbVertex
100
AcDb2dVertex
10
2484.443
20
2798.600
30
0.0
42
1.000
0
VERTEX
5
843
100
AcDbEntity
  8
0-1
6
CONTINUOUS
62
4
100
AcDbVertex
100
AcDb2dVertex
10
2492.443
20
2798.600
30
0.0
42
1.000
0
SEQEND
5
844
100
AcDbEntity
  8
0-1
0
LINE
5
845
100
AcDbEntity
8
0-1
6
CONTINUOUS
62
4
100
AcDbLine
10
1938.442660562207
20
2798.600369829352
30
0.0
11
1938.442660562207
21
2621.456318087671
31
0.0
0
LINE
5
846
100
AcDbEntity
8
0-1
6
CONTINUOUS
62
4
100
AcDbLine
10
2488.442660562207
20
2798.600369829352
30
0.0
11
2488.442660562207
21
2621.456318087671
31
0.0
0
LINE
5
847
100
AcDbEntity
8
0-1
6
CONTINUOUS
62
4
100
AcDbLine
10
1938.442660562207
20
2798.600369829352
30
0.0
11
2488.442660562207
21
2798.600369829352
31
0.0
0
TEXT
5
848
100
AcDbEntity
8
0-1
62
4
370
-3
100
AcDbText
10
2171.243
20
2809.345
30
0.0
40
58.905
41
0.460
50
0.000
1
550
72
1
11
2216.243
21
2802.800
31
0.0
100
AcDbText
73
1
0
POLYLINE
5
849
100
AcDbEntity
  8
0-1
6
CONTINUOUS
62
4
100
AcDb2dPolyline
66
1
10
0
20
0
70
1
40
8.000
41
8.000
0
VERTEX
5
84a
100
AcDbEntity
  8
0-1
6
CONTINUOUS
62
4
100
AcDbVertex
100
AcDb2dVertex
10
3265.498
20
2798.600
30
0.0
42
1.000
0
VERTEX
5
84b
100
AcDbEntity
  8
0-1
6
CONTINUOUS
62
4
100
AcDbVertex
100
AcDb2dVertex
10
3273.498
20
2798.600
30
0.0
42
1.000
0
SEQEND
5
84c
100
AcDbEntity
  8
0-1
0
POLYLINE
5
84d
100
AcDbEntity
  8
0-1
6
CONTINUOUS
62
4
100
AcDb2dPolyline
66
1
10
0
20
0
70
1
40
8.000
41
8.000
0
VERTEX
5
84e
100
AcDbEntity
  8
0-1
6
CONTINUOUS
62
4
100
AcDbVertex
100
AcDb2dVertex
10
3825.498
20
2798.600
30
0.0
42
1.000
0
VERTEX
5
84f
100
AcDbEntity
  8
0-1
6
CONTINUOUS
62
4
100
AcDbVertex
100
AcDb2dVertex
10
3833.498
20
2798.600
30
0.0
42
1.000
0
SEQEND
5
850
100
AcDbEntity
  8
0-1
0
LINE
5
851
100
AcDbEntity
8
0-1
6
CONTINUOUS
62
4
100
AcDbLine
10
3269.498308740799
20
2798.600369829352
30
0.0
11
3269.498308740799
21
2621.456318087671
31
0.0
0
LINE
5
852
100
AcDbEntity
8
0-1
6
CONTINUOUS
62
4
100
AcDbLine
10
3829.498308740799
20
2798.600369829352
30
0.0
11
3829.498308740799
21
2621.456318087671
31
0.0
0
LINE
5
853
100
AcDbEntity
8
0-1
6
CONTINUOUS
62
4
100
AcDbLine
10
3269.498308740799
20
2798.600369829352
30
0.0
11
3829.498308740799
21
2798.600369829352
31
0.0
0
TEXT
5
854
100
AcDbEntity
8
0-1
62
4
370
-3
100
AcDbText
10
3507.298
20
2809.345
30
0.0
40
58.905
41
0.462
50
0.000
1
560
72
1
11
3552.298
21
2802.800
31
0.0
100
AcDbText
73
1
0
POLYLINE
5
855
100
AcDbEntity
  8
0-1
6
CONTINUOUS
62
4
100
AcDb2dPolyline
66
1
10
0
20
0
70
1
40
8.000
41
8.000
0
VERTEX
5
856
100
AcDbEntity
  8
0-1
6
CONTINUOUS
62
4
100
AcDbVertex
100
AcDb2dVertex
10
4596.554
20
2798.600
30
0.0
42
1.000
0
VERTEX
5
857
100
AcDbEntity
  8
0-1
6
CONTINUOUS
62
4
100
AcDbVertex
100
AcDb2dVertex
10
4604.554
20
2798.600
30
0.0
42
1.000
0
SEQEND
5
858
100
AcDbEntity
  8
0-1
0
POLYLINE
5
859
100
AcDbEntity
  8
0-1
6
CONTINUOUS
62
4
100
AcDb2dPolyline
66
1
10
0
20
0
70
1
40
8.000
41
8.000
0
VERTEX
5
85a
100
AcDbEntity
  8
0-1
6
CONTINUOUS
62
4
100
AcDbVertex
100
AcDb2dVertex
10
5326.554
20
2798.600
30
0.0
42
1.000
0
VERTEX
5
85b
100
AcDbEntity
  8
0-1
6
CONTINUOUS
62
4
100
AcDbVertex
100
AcDb2dVertex
10
5334.554
20
2798.600
30
0.0
42
1.000
0
SEQEND
5
85c
100
AcDbEntity
  8
0-1
0
LINE
5
85d
100
AcDbEntity
8
0-1
6
CONTINUOUS
62
4
100
AcDbLine
10
4600.553956919391
20
2798.600369829352
30
0.0
11
4600.553956919391
21
2621.456318087671
31
0.0
0
LINE
5
85e
100
AcDbEntity
8
0-1
6
CONTINUOUS
62
4
100
AcDbLine
10
5330.553956919391
20
2798.600369829352
30
0.0
11
5330.553956919391
21
2621.456318087671
31
0.0
0
LINE
5
85f
100
AcDbEntity
8
0-1
6
CONTINUOUS
62
4
100
AcDbLine
10
4600.553956919391
20
2798.600369829352
30
0.0
11
5330.553956919391
21
2798.600369829352
31
0.0
0
TEXT
5
860
100
AcDbEntity
8
0-1
62
4
370
-3
100
AcDbText
10
4923.354
20
2809.345
30
0.0
40
58.905
41
0.478
50
0.000
1
730
72
1
11
4968.354
21
2802.800
31
0.0
100
AcDbText
73
1
0
POLYLINE
5
861
100
AcDbEntity
  8
0-1
6
CONTINUOUS
62
4
100
AcDb2dPolyline
66
1
10
0
20
0
70
1
40
8.000
41
8.000
0
VERTEX
5
862
100
AcDbEntity
  8
0-1
6
CONTINUOUS
62
4
100
AcDbVertex
100
AcDb2dVertex
10
5927.610
20
2798.600
30
0.0
42
1.000
0
VERTEX
5
863
100
AcDbEntity
  8
0-1
6
CONTINUOUS
62
4
100
AcDbVertex
100
AcDb2dVertex
10
5935.610
20
2798.600
30
0.0
42
1.000
0
SEQEND
5
864
100
AcDbEntity
  8
0-1
0
POLYLINE
5
865
100
AcDbEntity
  8
0-1
6
CONTINUOUS
62
4
100
AcDb2dPolyline
66
1
10
0
20
0
70
1
40
8.000
41
8.000
0
VERTEX
5
866
100
AcDbEntity
  8
0-1
6
CONTINUOUS
62
4
100
AcDbVertex
100
AcDb2dVertex
10
6657.610
20
2798.600
30
0.0
42
1.000
0
VERTEX
5
867
100
AcDbEntity
  8
0-1
6
CONTINUOUS
62
4
100
AcDbVertex
100
AcDb2dVertex
10
6665.610
20
2798.600
30
0.0
42
1.000
0
SEQEND
5
868
100
AcDbEntity
  8
0-1
0
LINE
5
869
100
AcDbEntity
8
0-1
6
CONTINUOUS
62
4
100
AcDbLine
10
5931.609605097983
20
2798.600369829352
30
0.0
11
5931.609605097983
21
2621.456318087671
31
0.0
0
LINE
5
86a
100
AcDbEntity
8
0-1
6
CONTINUOUS
62
4
100
AcDbLine
10
6661.609605097983
20
2798.600369829352
30
0.0
11
6661.609605097983
21
2621.456318087671
31
0.0
0
LINE
5
86b
100
AcDbEntity
8
0-1
6
CONTINUOUS
62
4
100
AcDbLine
10
5931.609605097983
20
2798.600369829352
30
0.0
11
6661.609605097983
21
2798.600369829352
31
0.0
0
TEXT
5
86c
100
AcDbEntity
8
0-1
62
4
370
-3
100
AcDbText
10
6254.410
20
2809.345
30
0.0
40
58.905
41
0.478
50
0.000
1
730
72
1
11
6299.410
21
2802.800
31
0.0
100
AcDbText
73
1
0
POLYLINE
5
86d
100
AcDbEntity
  8
0-1
6
CONTINUOUS
62
4
100
AcDb2dPolyline
66
1
10
0
20
0
70
1
40
8.000
41
8.000
0
VERTEX
5
86e
100
AcDbEntity
  8
0-1
6
CONTINUOUS
62
4
100
AcDbVertex
100
AcDb2dVertex
10
7258.665
20
2798.600
30
0.0
42
1.000
0
VERTEX
5
86f
100
AcDbEntity
  8
0-1
6
CONTINUOUS
62
4
100
AcDbVertex
100
AcDb2dVertex
10
7266.665
20
2798.600
30
0.0
42
1.000
0
SEQEND
5
870
100
AcDbEntity
  8
0-1
0
POLYLINE
5
871
100
AcDbEntity
  8
0-1
6
CONTINUOUS
62
4
100
AcDb2dPolyline
66
1
10
0
20
0
70
1
40
8.000
41
8.000
0
VERTEX
5
872
100
AcDbEntity
  8
0-1
6
CONTINUOUS
62
4
100
AcDbVertex
100
AcDb2dVertex
10
7925.665
20
2798.600
30
0.0
42
1.000
0
VERTEX
5
873
100
AcDbEntity
  8
0-1
6
CONTINUOUS
62
4
100
AcDbVertex
100
AcDb2dVertex
10
7933.665
20
2798.600
30
0.0
42
1.000
0
SEQEND
5
874
100
AcDbEntity
  8
0-1
0
LINE
5
875
100
AcDbEntity
8
0-1
6
CONTINUOUS
62
4
100
AcDbLine
10
7262.665253276575
20
2798.600369829352
30
0.0
11
7262.665253276575
21
2621.456318087671
31
0.0
0
LINE
5
876
100
AcDbEntity
8
0-1
6
CONTINUOUS
62
4
100
AcDbLine
10
7929.665253276576
20
2798.600369829352
30
0.0
11
7929.665253276576
21
2621.456318087671
31
0.0
0
LINE
5
877
100
AcDbEntity
8
0-1
6
CONTINUOUS
62
4
100
AcDbLine
10
7262.665253276575
20
2798.600369829352
30
0.0
11
7929.665253276576
21
2798.600369829352
31
0.0
0
TEXT
5
878
100
AcDbEntity
8
0-1
62
4
370
-3
100
AcDbText
10
7553.965
20
2809.345
30
0.0
40
58.905
41
0.443
50
0.000
1
667
72
1
11
7598.965
21
2802.800
31
0.0
100
AcDbText
73
1
0
LINE
5
879
100
AcDbEntity
8
F-F_J_ADD
6
HIDDEN
62
7
100
AcDbLine
10
2488.442660562207
20
3852.951509815698
30
0.0
11
1938.442660562207
21
3852.951509815698
31
0.0
0
LINE
5
87a
100
AcDbEntity
8
F-F_J_ADD
6
HIDDEN
62
7
100
AcDbLine
10
3829.498308740799
20
3852.951509815698
30
0.0
11
3269.498308740799
21
3852.951509815698
31
0.0
0
LINE
5
87b
100
AcDbEntity
8
F-F_J_ADD
6
HIDDEN
62
7
100
AcDbLine
10
5330.553956919391
20
3852.951509815698
30
0.0
11
4600.553956919391
21
3852.951509815698
31
0.0
0
LINE
5
87c
100
AcDbEntity
8
F-F_J_ADD
6
HIDDEN
62
7
100
AcDbLine
10
6661.609605097983
20
3852.951509815698
30
0.0
11
5931.609605097983
21
3852.951509815698
31
0.0
0
TEXT
5
87d
100
AcDbEntity
8
F-F_J_ADD
62
253
370
-3
100
AcDbText
10
4202.400
20
-17020.790
30
0.0
40
50.490
41
0.685
50
0.000
1
Printer_Orientation = 2
72
2
11
5005.000
21
-16960.000
31
0.0
100
AcDbText
73
3
0
TEXT
5
87e
100
AcDbEntity
8
F-F_J_ADD
62
253
370
-3
100
AcDbText
10
4202.400
20
-17020.790
30
0.0
40
50.490
41
0.668
50
0.000
1
Printer_PaperSize = 8
72
2
11
4935.000
21
-16960.000
31
0.0
100
AcDbText
73
3
0
TEXT
5
87f
100
AcDbEntity
8
F-F_J_ADD
62
253
370
-3
100
AcDbText
10
4202.400
20
-17020.790
30
0.0
40
50.490
41
0.656
50
0.000
1
Printer_D2dBMP = 0
72
2
11
4830.000
21
-16960.000
31
0.0
100
AcDbText
73
3
0
TEXT
5
880
100
AcDbEntity
8
F-F_J_ADD
62
253
370
-3
100
AcDbText
10
4202.400
20
-17020.790
30
0.0
40
50.490
41
0.662
50
0.000
1
Printer_BmpZENTAI = 0
72
2
11
4935.000
21
-16960.000
31
0.0
100
AcDbText
73
3
0
TEXT
5
881
100
AcDbEntity
8
F-F_J_ADD
62
253
370
-3
100
AcDbText
10
4202.400
20
-17020.790
30
0.0
40
50.490
41
0.691
50
0.000
1
View_Direct2d = 1
72
2
11
4795.000
21
-16960.000
31
0.0
100
AcDbText
73
3
0
TEXT
5
882
100
AcDbEntity
8
F-F_J_ADD
62
253
370
-3
100
AcDbText
10
4202.400
20
-17020.790
30
0.0
40
50.490
41
0.652
50
0.000
1
Draw_BmpTOUKA = 1
72
2
11
4795.000
21
-16960.000
31
0.0
100
AcDbText
73
3
0
ENDSEC
 0
SECTION
  2
OBJECTS
 0
DICTIONARY
  5
C
100
AcDbDictionary
  3
ACAD_GROUP
350
D
  3
ACAD_MLINESTYLE
350
E
 0
DICTIONARY
  5
D
102
{ACAD_REACTORS
102
}
100
AcDbDictionary
 0
DICTIONARY
  5
E
102
{ACAD_REACTORS
102
}
100
AcDbDictionary
  3
STANDARD
350
13
0
MLINESTYLE
  5
13
102
{ACAD_REACTORS
102
}
100
AcDbMlineStyle
  2
STANDARD
 70
    0
3

62
256
51
90.0
52
90.0
71
0
0
ACDBPLACEHOLDER
  5
14
102
{ACAD_REACTORS
102
}
0
ENDSEC
0
EOF
